Oops, an error
Loading. Please wait.

Life Wasted tab

version 2
version 2

Whole song

Interactive

6,974 views 9 this week
7 commentsread comments
1 2 3 4 5
x 12
add to favorites
×
Save as Personal and add changes to this tab that will be seen only by you. Learn more ›
×
You can save this tab as Personal to edit and correct it or add notes. All changes will be seen only by you. Learn more »
launch autoscroll
font size
0
reset
how to read this tab
guitar tuner
backing track
0:00
0:00
edit
Autoscroll
slow
fast
+/-
esc
set tempo
stop
Tabbed By: Jason McCarthy
E-mail: gwbgw@stu.ca
Date: May 24, 2006

This is a great song found on Pearl Jam's self-titled album. Written by Eddie and Stone, 
is truely one of their best songs. Enjoy!

Standard Tuning
Capo on 4th fret, strings 1-5


e|--------------------------------------------------------------------------|
B|---3---2--2--2------------------3---2--2--2-------------------------------|
G|---2---2--2--2---0---0--0--0----2---2--2--2---0---0--0--0--0--0--0--------|
D|---0---2--2--2---0---0--0--0----0---2--2--2---0---0--0--0--0--0--0--0-----|
A|-------0--0--0---3-/-5--5--5--------0--0--0---3-/-5--5--5--5--5--3--0-----|
E|--------------------------------------------------------------------------|
   Intro                                                            3x

e|--------------------------------------------------------------------------|
B|--------------------------------------------------------------------------|
G|--------------------------------------------------------------------------|
D|-----------------------------------------------5--5---5---5--5-5-5--------|
A|-----------------------------------------------3--2---3---3--3-3-3--------|
E|---2--2-0--2-0---2-0-2-0--2--2--2-0-2-0-2-0----0--0---0---0--0-0-0--------|
   Verse 1 (Play this part behind the capo)                         2x

e|--------------------------------------------------------------------------|
B|---3----2--2--2----3----2--2--2---3--2--2--2------------------------------|
G|---2----2--2--2----2----2--2--2---2--2--2--2----2-----0---0--0-0----------|
D|---0----2--2--2----0----2--2--2---0--2--2--2----2-----0---0--0-0----------|
A|--------0--0--0---------0--0--0------0--0--0----0-----x---x--x-x----------|
E|------------------------------------------------------3---3--3-3----------|
   Chorus                                                           3x

e|--------------------------------------------------------------------------|
B|---3---2--2--2-------------------3---2--2--2------------------------------|
G|---2---2--2--2-------------------2---2--2--2------------------------------|
D|---0---2--2--2-------------------0---2--2--2------------------------------|
A|-------0--0--0---3-/-5--5--5---------0--0--0---3-/-5--5--5--5--5--3--0----|
E|--------------------------------------------------------------------------|
   Verse 2                                                          3x

e|---------------------------------0----------------------------------------|
B|---0-----------------0-----------1---0-----------------------1------------|
G|---0-------0---------0-------0---0---0--------0--------------0------------|
D|---3-------2---------3-------2---2---3--------2--------------2------------|
A|---3-------3---------3-------3---3---3--------3------2-------3------------|
E|---1-------0---------1-------0---0---1--------0---------------------------|
   Bridge


Intro
Verse 1
Chorus
Verse 1
Verse 2
Bridge
Chorus 4x
Fade out with Verse 2

Play it Loud! Peace.

            
            
Suggest correction
Creating personal tab
Creating personal tab
You can edit any tab online and save it as your Personal.

You can edit, replace or remove any tab part or add personal notes – all changes will be seen only by you.

Personal tabs can be accessed anytime from any device, even offline.
Learn more »
comments
print report bad tab
7 comments total. Showing first comments.
+1 reply
Stacked Actors 50 Aug 04, 2006 11:53 AM

If anyone watched Storytellers on VH1 I'm pretty sure this is what Stone was doing

0 reply
cougartraining 10 Nov 15, 2006 12:09 PM

No, this is pretty dang close to being perfect! You can play behind the capo by not covering up the 6th string! Just like he stated in the tab, Stone (guitar 1) plays with strings 1-5 clamped on the 4th fret from the bottom of the fretboard and string 6 is left open. Leaving the 6th still in the note of E and NOT DROP D!!! The best video to watch is AOL In-Studio, Pearl Jam performed half of the self-titled album for AOL the day before it's release. Mike (guitar 2) plays with no capo playing mostly bar chords, except when soloing of course.
These are the only chords that I noticed being a bit different;

e|-------------------------------------------------------------------
B|-3---2--2--2---1--------------3---2--2--2---1----------------------
G|-2---2--2--2---0---0--0--0----2---2--2--2---0---0--0--0--0--0--0---
D|-0---2--2--2---2-/-4--4--4----0---2--2--2---2---0--0--0--0--0--0--0
A|-----0--0--0---3-/-5--5--5--------0--0--0---3-/-5--5--5--5--5--3--0
E|-------------------------------------------------------------------
Intro/Verse 1 3x

Verse 1(or should be Verse 2, don't you think?) is perfect.

e|------------------------------------------------------------------|
B|---3----2--2--2----3----2--2--2---3--2--2--2----------------------|
G|---2----2--2--2----2----2--2--2---2--2--2--2----2-----2---2--2-2--|
D|---0----2--2--2----0----2--2--2---0--2--2--2----2-----2---2--2-2--|
A|--------0--0--0---------0--0--0------0--0--0----0-----x---x--x-x--|
E|------------------------------------------------------3---3--3-3--|
Chorus 3x

e|-------------------------------------------------------------------
B|-3---2--2--2---1--------------3---2--2--2---1----------------------
G|-2---2--2--2---0---0--0--0----2---2--2--2---0---0--0--0--0--0--0---
D|-0---2--2--2---2-/-4--4--4----0---2--2--2---2---0--0--0--0--0--0--0
A|-----0--0--0---3-/-5--5--5--------0--0--0---3-/-5--5--5--5--5--3--0
E|-------------------------------------------------------------------
Verse 2(or 3) 3x

e|---------------------------------0---------------------------0----|
B|---0-------0---------0-------0---1---0-----------------------1----|
G|---0-------0---------0-------0---0---0--------0--------------0----|
D|---3-------3---------3-------3---2---3--------3------0-------2----|
A|---3-------5---------3-------5---3---3--------5------2-------3----|
E|---1-------0---------1-------0---0---1--------0--------------0----|
Bridge

Good tab!

0 reply
SublimeGuitar 191 Nov 21, 2006 01:02 PM

what that guy said

guest
You may want to rate the tab now too:
select rating
Wanna post a correction for this tab? Suggest correction