Oops, an error
Loading. Please wait.

Love Boat Captain chords

version 2
version 2

Whole song

35,562 views 87 this week
3 commentsread comments
1 2 3 4 5
x 29
add to favorites
×
Save as Personal and add changes to this tab that will be seen only by you. Learn more ›
×
You can save this tab as Personal to edit and correct it or add notes. All changes will be seen only by you. Learn more »
launch autoscroll
font size
0
reset
transpose
0
reset
simplify chords
display chords
guitar tuner
edit
Autoscroll
slow
fast
+/-
esc
set tempo
stop
Author
Unregistered
Strumming
There is no strumming pattern for this song yet. and get +5 IQ
[Verse 1]
The guitar plays the same chords as the organ, 
Except they're palm-muted in a repetitive rhythm, which
You'll pick up easy from the CD. 
C       Cm
Is this just another day
G       F
In this God forgotten place?
C           Cm                  G
First comes love and then comes pain. 
F
Let the games begin.
C         Cm
Questions rise and answers 
G    F
fall insurmountable.

[Chorus]
(Strumming now)
E                 D7
Love Boat Captain take the reins and steer us towards
E                D7
The clear. Here. It's already been sung, but it can't be said enough,

[Fill 1]  Gmaj          Fmaj
e|-------------------|----------------------|
B|-------------------|----------------------|
G|-0-----------------|-------------2--------|
D|-----0-------------|---------3------------|
A|---------2---------|-----3----------------|
E|-------------3-----|-1--------------------|
 All you need is love.

[Verse 2]
Same chords as the start but played more openly, in a strumming rhythm.
C       Cm            G     F
Is this just another phase? Earthquakes making waves.
C         Cm               G    F
Trying to shake the cancer off. Stupid human beings.
C        Cm               G     F
Once you hold the hand of love, it's all surmountable.

[Mid-section]
Almost like a bridge...Just strum these chords to the lyrics.
A           C    G      A
Hold me and make it the truth,
A                C    G             A  
That when all is lost there will be you.
A                             C      G
Cause to the universe I don't mean a thing.
A                           C     G
And there's just one word I still believe.

And it's...

[Fill 2]
e|--------------------------------|--------------------------------|
B|--------------------------------|--------------------------------|
G|--------------------------------|--------------------------------|
D|----------0---2-------2---------|----------0---2-------2---------|
A|------3-----------3-------3-----|------3-----------3-------3-----|
E|--1-----------------------------|--1-----------------------------|
   love.

e|--------------------------------|--------------------------------|
B|--------------------------------|--------------------------------|
G|--------------------------------|--3---3---3---3---3---3---3---3-|
D|----------0---2-------2---------|--3---3---3---3---3---3---3---3-|
A|------3-----------3-------3-----|--1---1---1---1---1---1---1---1-|
E|--1-----------------------------|--------------------------------|


[Verse 3] 
(strumming same chords as earlier verses)
(C, Cm, G, F):
It's an art to live with pain. Mix the light into gray.
Lost nine friends we'll never know. Two years ago today.
And if our lives became too long would it add to our regret?

[Chorus 2]
(Same chords) (Emaj, D7), but played looser and with more power.) 

And the young they can lose hope cause they can't see beyond today.
The wisdom that the old can't give away.
Hey, constant recoil. Sometimes life don't leave you alone.

[Mid-section 2] 
(Same as last mid-section)
(A, C, G).
Hold me and make it the truth.
That when all is lost there will be you.
Cause to the universe I don't mean a thing.
And there's just one word that I still believe and it's love.
Love. Love. Love. Love.

[Fill 2]
e|--------------------------------|--------------------------------|
B|--------------------------------|--------------------------------|
G|--------------------------------|--------------------------------|
D|----------0---2-------2---------|----------0---2-------2---------|
A|------3-----------3-------3-----|------3-----------3-------3-----|
E|--1-----------------------------|--1-----------------------------|
   love.

e|--------------------------------|--------------------------------|
B|--------------------------------|--------------------------------|
G|--------------------------------|--3---3---3---3---3---3---3---3-|
D|----------0---2-------2---------|--3---3---3---3---3---3---3---3-|
A|------3-----------3-------3-----|--1---1---1---1---1---1---1---1-|
E|--1-----------------------------|--------------------------------|

[Outro] 
(C, Cm, G, F).

Love boat captain take the reigns. Steer us towards the clear.
I know it's already been sung. Can't be said enough.
Love is all you need. All you need is love.
Love. Love. Love.

            
            
Suggest correction
Creating personal tab
Creating personal tab
You can edit any tab online and save it as your Personal.

You can edit, replace or remove any tab part or add personal notes – all changes will be seen only by you.

Personal tabs can be accessed anytime from any device, even offline.
Learn more »
comments
print report bad tab
3 comments total.
0 reply
nat1707 10 May 31, 2007 06:10 AM

For me, it's sounds good!! thanks

+1 reply
ines_faria 245 Jul 12, 2013 10:42 AM

I'd do Esus4 E D7sus4 D7 in the "chorus"
Plus there's F Bb after each "middle section", before continuing to the verses.

0 reply
joycesmith6105 10 May 07, 2017 08:06 AM

duh forget the chords. I could never figure out the words lol

guest
Wanna post a correction for this tab? Suggest correction