Oops, an error
Loading. Please wait.

Mind Your Manners tab

version 2
version 2

Whole song

Interactive

2,498 views 3 this week
1 commentread comment
1 2 3 4 5
x 4
add to favorites
×
Save as Personal and add changes to this tab that will be seen only by you. Learn more ›
×
You can save this tab as Personal to edit and correct it or add notes. All changes will be seen only by you. Learn more »
launch autoscroll
font size
0
reset
how to read this tab
guitar tuner
edit
Autoscroll
slow
fast
+/-
esc
set tempo
stop
Author
Difficulty
-----------------------------------------------------------------------------
                        Mind Your Manners - Pearl Jam
-----------------------------------------------------------------------------
Tabbed by: ehbacon
E-mail: ehbacon@att.net

Tuning: standard


Intro (x4): mild distortion

e|------------------------------|
B|------------------------------|
G|------------------------------|
D|-101099-999-101099-999-101099-|
A|--X-XXX-XXX--X-XXX-XXX--X-XXX-|
E|--8-877-777--8-877-777--8-877-|


Verse (x4): full distortion

e|-------------------------------------|
B|-------------------------------------|
G|-------------1111X9------------------|
D|-(7)9-999999-1111X9-79-999999-1010X9-|
A|-(7)9-999999-9-9-X7-79-999999-1010X9-|
E|-(5)7-777777--------57-777777-8-8-X7-|
  I've got an unfortunate feelin'...


Chorus (x2): full distortion

e|------------------|
B|------------------|
G|-7---5-7-5------5-|
D|-7---5-7-5-7----5-| (let every chord ring)
A|-5---3-5-3-7----3-|
E|-----------5------|
  All Along They're sayin'...


Interlude: 

Guitar 1 (x3): low distortion
 
                  1&2  3
e|---------------|---|---|
B|---------------|---|---|
G|---------------|---|---|   (3nd ending played the 3rd time)
D|-7----5----4---|-5-|-2-|   (let every chord ring)
A|-7----5----4---|-5-|-2-|
E|-5----3----2---|-3-|-0-|
   self-realized and metaphysically redeem...


Guitar 2 (starting at the 3rd time for Guitar 1): clean

e|------------------------------------------------|
B|-13------------------13-------13-------13-------|
G|-15b-(x16-hold-bend)-15-(x16)-14-(x16)-15-(x16)-|
D|------------------------------------------------|
A|------------------------------------------------|
E|------------------------------------------------|


Solo:

Guitar 1: full distorion

e|-------------------------------------------------------------------------------------------------|
B|-1010101010101010101010101010101010~--10----12121212-15151515-141414-----------------------------|
G|----------------------------------------9~---------------------------9~--------------------------|
D|--------------------------------------------------------------------------12121212-10101010------|
A|----------------------------------------------------------------------------------------------12~|
E|-------------------------------------------------------------------------------------------------|
   ..........

e|-----------------19b---191919191919191921b--191919191919191921b|
B|---------------------------------------------------------------|
G|---------------------------------------------------------------|
D|-777788889999--------------------------------------------------|
A|-XXXXXXXXXXXX--------------------------------------------------|
E|-555566667777--------------------------------------------------|

Guitar 2 plays the verse to back up the solo.


Bridge:

Guitar 1 (x3): mild distortion 

e|--------------------------------------------------------------|
B|------------------------12~-------------------------12\\\\\\\-|
G|--------------------------------------------------------------|
D|-101099-999-101099-999-------101099-999-101099-999------------|
A|--------------------------------------------------------------|
E|--------------------------------------------------------------|
  go to heaven   that's swell   how do you like it?   livin' hell!


Guitar 2 (x6): full distortion

e|-----------------------------------|
B|-----------------------------------|
G|----------99999999----------7---7--|
D|-99999999-99999999-55555555-7-7-7--|
A|-99999999-77777777-55555555-5-7-5--|
E|-77777777----------33333333---5----|


Outro: full distortion

e|----------------|
B|----------------|
G|-7---7----------|
D|-7-7-7-9\\\\\\--|
A|-5-7-5-9\\\\\\--|
E|---5---7\\\\\\--|


Order:

Intro
Verse
Chorus
Verse
Chorus
Interlude
Solo
Chorus
Interlude
Bridge
Outro

************************************
| /   slide up
| \   slide down
| ~   vibrato
| +   harmonic
| x   Mute note
| .   Palm mute note
| b   Bend
************************************

            
            
Suggest correction
Creating personal tab
Creating personal tab
You can edit any tab online and save it as your Personal.

You can edit, replace or remove any tab part or add personal notes – all changes will be seen only by you.

Personal tabs can be accessed anytime from any device, even offline.
Learn more »
comments
print report bad tab
1 comment total.
0 reply
DMOB1996 283 Jul 16, 2013 02:21 AM

nice! Great tab :)

guest
You may want to rate the tab now too:
select rating
Wanna post a correction for this tab? Suggest correction