Oops, an error
Loading. Please wait.

Mind Your Manners tab

version 3
version 3

Whole song

Interactive

15,006 views 18 this week
2 commentsread comments
1 2 3 4 5
x 14
add to favorites
×
Save as Personal and add changes to this tab that will be seen only by you. Learn more ›
×
You can save this tab as Personal to edit and correct it or add notes. All changes will be seen only by you. Learn more »
launch autoscroll
font size
0
reset
how to read this tab
guitar tuner
edit
Autoscroll
slow
fast
+/-
esc
set tempo
stop
Author
Difficulty
Pearl Jam - Mind Your Manners
From 'Lightning Bolt' album
Standard Tuning
tabbed by jjhand

I listened to the new Pearl Jam and thought it sounds like this. Its
very punk sounding like 'Spin the Black Circle' and a few other songs they 
wrote in the late 90's. Please rate or comment.

Intro (doubled by bass)
e|-------------------------------|----------------------------------|
B|-------------------------------|----------------------------------|
G|-5p4-4-4--4-4-4-5p4-4-4--4-4-4-|-5p4-4-4--------------------------|
D|-------------------------------|----------------------------------|
A|-------------------------------|----------------------------------|
E|-------------------------------|----------------------------------|



Verse (0:15)
e|----------------------|------------------------|
B|----------------------|------------------------|
G|----------10---9---7--|------------------------|
D|-9--9-----10---9---7--|-9--9------10---9---7---|
A|-9--9------8---7---5--|-9--9------10---9---7---|
E|-7--7-----------------|-7--7-------8---7---5---|


Chorus 
e|-----------------------|------------------------|
B|-----------------------|------------------------|
G|-7--7------5---7---5---|-----------5--5--5--5---|
D|-7--7------5---7---5---|-7--7------5--5--5--5---|
A|-5--5------3---5---3---|-7--7------3--3--3--3---|
E|-----------------------|-5--5-------------------|

e|-----------------------|---------------------|
B|-----------------------|---------------------|
G|-7--7------5---7---5---|-----------5---------|
D|-7--7------5---7---5---|-7--7------5---------|
A|-5--5------3---5---3---|-7--7------3---------|
E|-----------------------|-5--5----------------|


Repeat Verse and Chorus riffs


Bridge (1:06) - play 2x
e|-------------|-------------|--------------|--------------|
B|-------------|-------------|--------------|--------------|
G|-------------|-------------|--------------|--------------|
D|-2-----------|-------------|--------------|--------------|
A|-0-----------|-------------|--------------|--------------|
E|-------------|-3-----------|-2------------|-3------------|

e|-------------|-------------|--------------|--------------|
B|-------------|-------------|--------------|--------------|
G|-------------|-------------|--------------|--------------|
D|-2-----------|-------------|--------------|--------------|
A|-0-----------|-------------|--------------|--------------|
E|-------------|-3-----------|-2------------|-0------------|


Final Bridge repeat, Guitar 2 plays:
e|12-x-12-12-12-x-12-12-|-10-x-10-10-10-x-10-10-|
B|----------------------|-----------------------|
G|-9-x--9--9--9-x--9--9-|--7-x--7--7--7-x--7--7-|
D|----------------------|-----------------------|
A|----------------------|-----------------------|
E|----------------------|-----------------------|

1st ending
e|-9-x--9--9--9-x--9--9-|-10-x-10-10-10-x-10-10-||
B|----------------------|-----------------------||
G|-6-x--6--6--6-x--6--6-|--7-x--7--7--7-x--7--7-||
D|----------------------|-----------------------||
A|----------------------|-----------------------||
E|----------------------|-----------------------||

2nd ending
e|-9-x--9--9--9-x--9--9-|--7-x--7--7--7-x--7--7-||
B|----------------------|-----------------------||
G|-6-x--6--6--6-x--6--6-|--4-x--4--4--4-x--4--4-||
D|----------------------|-----------------------||
A|----------------------|-----------------------||
E|----------------------|-----------------------||



Solo - with slapback echo, reverb and several quick slides along the neck

e|-------------|------------------|-------------------------------------------|
B|-10TP--------|-10~~---7---------|-12-12-12-12-15-15-15-15-14-14-14-14-------|
G|-------------|------9---7___/21-|-------------------------------------11~/--|
D|-------------|------------------|-------------------------------------------|
A|-------------|------------------|-------------------------------------------|
E|-------------|------------------|-------------------------------------------|
   TP = tremelo pick notes indicated in sixteenths

e|---------------------|-----------------------------------------|
B|---------------------|-----------------------------------------|
G|-9-9-9-9-7-7-7-7-----|-----------------------------------------|
D|-----------------9~--|-----------------------------------------|
A|---------------------|-----------------------------------------|
E|---------------------|-5-5-5-5-5b-5b-5b-5b-5b-5b-5b-5b-5-5-5---|


E|-21b22~~~~~~~~-\x-----|-19TP----21b22--0--|-19TP----21b22--\x-------|
B|----------------------|-------------------|----------------\x-------|
G|----------------------|-------------------|-------------------------|
D|-----------------/x\--|-------------------|-------------------------|
A|-----------------/x\--|-------------------|-------------------------|
E|----------------------|-------------------|-------------------------|


Play Chorus Again

Play Bridge Again

Ending, played 6x 

  Guitar 1
e|---------------------|-----------------------|
B|---------------------|-----------------------|
G|----------9----------|----------7-------7----|
D|-9--------9----------|-5--------7---7---7----|
A|-9--------7----------|-5--------5---7---5----|
E|-7-------------------|-3------------5--------|
 |
 | Guitar 2
e|-------------------------------|-7\0-------------------|
B|-------------------------------|-----------------------|
G|-5p4-4-4--4-4-4-5p4-4-4--4-4-4-|-----------------------|
D|-------------------------------|-----------------------|
A|-------------------------------|-----------------------|
E|-------------------------------|-----------------------|
 on last two repeats, the slide in bar 2 goes up instead 



Final Bar 
e|---------------------|
B|---------------------|
G|--7-------7----------|
D|--7---7---7---9------|
A|--5---7---5---9------|
E|------5-------7------|


KEY
************************************

| /   slide up
| \   slide down
| h   hammer-on
| p   pull-off
| ~   vibrato
| +   harmonic
| x   Mute note
| b   Bend
| pb  Pre-bend
| r  Bend release
| pbr Pre-bend release
| brb Bend release bend

************************************
Suggest correction
Creating personal tab
Creating personal tab
You can edit any tab online and save it as your Personal.

You can edit, replace or remove any tab part or add personal notes – all changes will be seen only by you.

Personal tabs can be accessed anytime from any device, even offline.
Learn more »
comments
print report bad tab
2 comments total.
0 reply
KnuckleChildren 154 Jul 17, 2013 04:19 AM

Awesome work, as usual. Any idea what the second guitar is playing in the bridge?

+1 reply
mbolge 82 Aug 25, 2013 05:27 PM

G|---------10-9-10------------------------------|
D|--9999---10-9-10----9999---10--9--------------|
A|--9999---8--7-8-----9999---10--9--0-----------|
E|--7777--------------7777---8---7--0-----------|

This is how the verse is played if you watch mike in that youtube video.

guest
You may want to rate the tab now too:
select rating
Wanna post a correction for this tab? Suggest correction