Oops, an error
Loading. Please wait.

Oceans Tab

version 3
version 3

Whole song

Interactive

36,049 views 72 this week
1 commentread comment
1 2 3 4 5
x 16
add to favorites
launch autoscroll
font size
0
reset
how to read this tab
guitar tuner
Autoscroll
slow
fast
+/-
esc
set tempo
stop
Author
G1--Open-D--DADF#AD ( Low-->High )
G2--Standard

This is pretty much 100% accurate. Enjoy = ]

-|--0------------|-11--11------|-0-----------------|-11--11------------|------|
-|--0------------|-11--11------|-0-----------------|-11--11------------|------|
-|--0------------|-12--11------|-0-----------------|-12--11------------|------|
-|--0------------|-11--11------|-0-----------------|-11--11------------|------|
-|--0------------|-11--11------|-0-----------------|-11--11------------|------|
-|--0------------|-11--11------|-0-----------------|-11--11------------|------|
 G1 Hold on to the thread   the currents will shift  glide me towards

-|--0-------------------|-11--11-----|-0---------------|-11--11------10------|
-|--0-------------------|-11--11-----|-0---------------|-11--11------10------|
-|--0-------------------|-12--11-----|-0---------------|-12--11------10------|
-|--0-------------------|-11--11-----|-0---------------|-11--11------10------|
-|--0-------------------|-11--11-----|-0---------------|-11--11------10------|
-|--0-------------------|-11--11-----|-0---------------|-11--11------10------|
 G1 You know something's  left   and  we're all allowed to dream of the next

-|-10--10--10--10-10-10-|-10--10-10--10--10--10-|-10--10--10--10--10-10-10-|--|
-|-10--10--10--10-10-10-|-10--10-10--10--10--10-|-10--10--10--10--10-10-10-|--|
-|-12--13--12--10-10-10-|-12--12-13--12--10--10-|-12--12--13--12--10-10-12-|--|
-|-10--10--10--10-10-10-|-10--10-10--10--10--10-|-10--10--10--10--10-10-10-|--|
-|-10--10--10--10-10-10-|-10--10-10--10--10--10-|-10--10--10--10--10-10-10-|--|
-|-10--10--10--10-10-10-|-10--10-10--10--10--10-|-10--10--10--10--10-10-10-|--|
 G1                        ah                         ohhh             the

-|----------------------|-----------------------|--------------------------|--|
-|----------------------|-----------------------|--------------------------|--|
-|--5---5---5-5---5--5--|--5---5---5-5---5---5--|--5---5---5-5---5---5-5-5-|--|
-|--5---5---5-5---5--5--|--5---5---5-5---5---5--|--5---5---5-5---5---5-5-5-|--|
-|--3---3---3-3---3--3--|--3---3---3-3---3---3--|--3---3---3-3---3---3-3-3-|--|
-|----------------------|-----------------------|--------------------------|--|
 G2

-|-10--10--10--10--10-|--0--------0--0-|--0-----0-------|--0-----0----0--|----|
-|-10--10--10--10--10-|--0--------0--0-|--0-----0-------|--0-----0----0--|----|
-|-13--12--12--10--10-|-12-------12-12-|-14----14-------|-17----17---17--|----|
-|-10--10--10--10--10-|--0--------0--0-|--0-----0-------|--0-----0----0--|----|
-|-10--10--10--10--10-|-12-------12-12-|-14----14-------|-17----17---17--|----|
-|-10--10--10--10--10-|--0--------0--0-|--0-----0-------|--0-----0----0--|----|
 G1 next   time    we  touch             oooh             oooh

-|--------------------|-10-------------|----------------|--7-------------|----|
-|--------------------|-10-------------|----------------|--0-------------|----|
-|--5---5---5-5----5--|-11-------------|--9-------------|--7-------------|----|
-|--5---5---5-5----5--|-12-------------|--9-------------|--5-------------|----|
-|--3---3---3-3----3--|-12-------------|-11-------------|----------------|----|
-|--------------------|-10-------------|-10-------------|----------------|----|
 G2

-|---0----0--10-10-10-10-10-10-10-|--0------------|--0------------|-----------|
-|---0----0--10-10-10-10-10-10-10-|--0------------|--0------------|-----------|
-|--12---12--12-12-12-12-12-12-12-|-12------------|-14------------|-----------|
-|---0----0--10-10-10-10-10-10-10-|--0------------|--0------------|-----------|
-|--12---12--10-10-10-10-10-10-10-|-12------------|-14------------|-----------|
-|---0----0--10-10-10-10-10-10-10-|--0------------|--0------------|-----------|
 G1                                 ooh              oooh

-|--10---10---8--8--8--8--8--8--8-|-10------------|---------------|-----------|
-|--10---10---8--8--8--8--8--8--8-|-10------------|---------------|-----------|
-|--11---11---9--9--9--9--9--9--9-|-11------------|--9------------|-----------|
-|--12---12--10-10-10-10-10-10-10-|-12------------|--9------------|-----------|
-|--12---12--10-10-10-10-10-10-10-|-12------------|-11------------|-----------|
-|--10---10---8--8--8--8--8--8--8-|-10------------|-10------------|-----------|
 G2

-|--0--------------|--0----0--10-10-10-10-10-10-10--|-10--10--10--10-10-10-|--|
-|--0--------------|--0----0--10-10-10-10-10-10-10--|-10--10--10--10-10-10-|--|
-|-17--------------|-12---12--12-12-12-12-12-12-12--|-12--13--12--10-10-10-|--|
-|--0--------------|--0----0--10-10-10-10-10-10-10--|-10--10--10--10-10-10-|--|
-|-17--------------|-12---12--10-10-10-10-10-10-10--|-10--10--10--10-10-10-|--|
-|--0--------------|--0----0--10-10-10-10-10-10-10--|-10--10--10--10-10-10-|--|
 G1 oooh

-|--7--------------|-10---10------------------------|----------------------|---|
-|--0--------------|-10---10------------------------|----------------------|---|
-|--7--------------|-11---11--11-11-11-11-11-11-11--|-12------------------|----|
-|--5--------------|-12---12---x--x--x--x--x--x--x--|--x-------------------|---|
-|-----------------|-12---12---9--9--9--9--9--9--9--|-10------------------|----|
-|-----------------|-10---10------------------------|----------------------|---|
 G2

-|-10--10-10--10-10-10--10-10-10-|-10-10--10-10-10--10-10--10-10-10-|---------|
-|-10--10-10--10-10-10--10-10-10-|-10-10--10-10-10--10-10--10-10-10-|---------|
-|-12--12-13--12-12-10--12-12-12-|-12-12--12-12-13--12-12--10-10-10-|---------|
-|-10--10-10--10-10-10--10-10-10-|-10-10--10-10-10--10-10--10-10-10-|---------|
-|-10--10-10--10-10-10--10-10-10-|-10-10--10-10-10--10-10--10-10-10-|---------|
-|-10--10-10--10-10-10--10-10-10-|-10-10--10-10-10--10-10--10-10-10-|---------|
 G1

-|-------------------------------|----------------------------------|---------|
-|-------------------------------|----------------------------------|---------|
-|--5----5------5--5-----5---5---|--5----5--------5--5-----5--5--5--|---------|
-|--5----5------5--5-----5---5---|--5----5--------5--5-----5--5--5--|---------|
-|--3----3------3--3-----3---3---|--3----3--------3--3-----3--3--3--|---------|
-|-------------------------------|----------------------------------|---------|
 G2

-|-10-10--10--10-------|-0---------------|-11--11--------|-0------------|-----|
-|-10-10--10--10-------|-0---------------|-11--11--------|-0------------|-----|
-|-12-12--13--12-------|-0---------------|-12--11--------|-0------------|-----|
-|-10-10--10--10-------|-0---------------|-11--11--------|-0------------|-----|
-|-10-10--10--10-------|-0---------------|-11--11--------|-0------------|-----|
-|-10-10--10--10-------|-0---------------|-11--11--------|-0------------|-----|
 G1                      You don't have to stray      the oceans away

-|---------------------|-----------------|---------------|--------------|-----|
-|---------------------|-----------------|---------------|--------------|-----|
-|-5---5------5--------|-----------------|---------------|--------------|-----|
-|-5---5------5--------|-----------------|---------------|--------------|-----|
-|-3---3------3--------|-----------------|---------------|--------------|-----|
-|---------------------|-----------------|---------------|--------------|-----|
 G2

-|-11--11-----------|-0----------------------|-11--11-----|-0----------------|
-|-11--11-----------|-0----------------------|-11--11-----|-0----------------|
-|-12--11-----------|-0----------------------|-12--11-----|-0----------------|
-|-11--11-----------|-0----------------------|-11--11-----|-0----------------|
-|-11--11-----------|-0----------------------|-11--11-----|-0----------------|
-|-11--11-----------|-0----------------------|-11--11-----|-0----------------|
 G1 Waves roll in my thoughts  hold tight the  ring        The sea will rise

-|-11--11-------10------|-10--10---10--10-10-10-|-10--10-10-10--10--10--|-----|
-|-11--11-------10------|-10--10---10--10-10-10-|-10--10-10-10--10--10--|-----|
-|-12--11-------10------|-12--13---12--10-10-10-|-12--12-13-12--10--10--|-----|
-|-11--11-------10------|-10--10---10--10-10-10-|-10--10-10-10--10--10--|-----|
-|-11--11-------10------|-10--10---10--10-10-10-|-10--10-10-10--10--10--|-----|
-|-11--11-------10------|-10--10---10--10-10-10-|-10--10-10-10--10--10--|-----|
 G1 Please stand by the shore

-|----------------------|-----------------------|-----------------------|-----|
-|----------------------|-----------------------|-----------------------|-----|
-|---------------5------|--5----5-5----5---5----|--5----5-5----5---5----|-----|
-|---------------5------|--5----5-5----5---5----|--5----5-5----5---5----|-----|
-|---------------3------|--3----3-3----3---3----|--3----3-3----3---3----|-----|
-|----------------------|-----------------------|-----------------------|-----|
 G2

-|-10--10--10--10--10-10-10-|-10--10--10--10---|------------------------------|
-|-10--10--10--10--10-10-10-|-10--10--10--10---|------------------------------|
-|-12--12--13--12--10-10-12-|-13--12--10--10---|------------------------------|
-|-10--10--10--10--10-10-10-|-10--10--10--10---|------------------------------|
-|-10--10--10--10--10-10-10-|-10--10--10--10---|------------------------------|
-|-10--10--10--10--10-10-10-|-10--10--10--10---|------------------------------|
 G1     Oh I will be  I will be   there  once

-|--------------------------|------------------|------------------------------|
-|--------------------------|------------------|------------------------------|
-|--5----5-5-----5----5-----|--5---5-----5-----|------------------------------|
-|--5----5-5-----5----5-----|--5---5-----5-----|------------------------------|
-|--3----3-3-----3----3-----|--3---3-----3-----|------------------------------|
-|--------------------------|------------------|------------------------------|
 G2

-|--0-------|--0-------|--0-------|--0----0--10-10-10-10-10-10-10-|-----------|
-|--0-------|--0-------|--0-------|--0----0--10-10-10-10-10-10-10-|-----------|
-|-12-------|-14-------|-17-------|-12---12--12-12-12-12-12-12-12-|-----------|
-|--0-------|--0-------|--0-------|--0----0--10-10-10-10-10-10-10-|-----------|
-|-12-------|-14-------|-17-------|-12---12--10-10-10-10-10-10-10-|-----------|
-|--0-------|--0-------|--0-------|--0----0--10-10-10-10-10-10-10-|-----------|
 G1 More       oooh       oooh

-|-10-------|----------|--7-------|-10---10---8--8--8--8--8--8--8-|-----------|
-|-10-------|----------|--0-------|-10---10---8--8--8--8--8--8--8-|-----------|
-|-11-------|--9-------|--7-------|-11---11---9--9--9--9--9--9--9-|-----------|
-|-12-------|--9-------|--5-------|-12---12--10-10-10-10-10-10-10-|-----------|
-|-12-------|-11-------|----------|-12---12--10-10-10-10-10-10-10-|-----------|
-|-10-------|-10-------|----------|-10---10---8--8--8--8--8--8--8-|-----------|
 G2

-|--0-------|--0-------|--0-------|--0----0--10-10-10-10-10-10-10-|-----------|
-|--0-------|--0-------|--0-------|--0----0--10-10-10-10-10-10-10-|-----------|
-|-12-------|-14-------|-17-------|-12---12--12-12-12-12-12-12-12-|-----------|
-|--0-------|--0-------|--0-------|--0----0--10-10-10-10-10-10-10-|-----------|
-|-12-------|-14-------|-17-------|-12---12--10-10-10-10-10-10-10-|-----------|
-|--0-------|--0-------|--0-------|--0----0--10-10-10-10-10-10-10-|-----------|
 G1 Oooh      oooh       oooh

-|-10-------|----------|--7-------|-10---10---8--8--8--8--8--8--8-|-----------|
-|-10-------|----------|--0-------|-10---10---8--8--8--8--8--8--8-|-----------|
-|-11-------|--9-------|--7-------|-11---11---9--9--9--9--9--9--9-|-----------|
-|-12-------|--9-------|--5-------|-12---12--10-10-10-10-10-10-10-|-----------|
-|-12-------|-11-------|----------|-12---12--10-10-10-10-10-10-10-|-----------|
-|-10-------|-10-------|----------|-10---10---8--8--8--8--8--8--8-|-----------|
 G2

-|--0-------|--0-------|--0-------|--0----0--10-10-10-10-10-10-10-|-----------|
-|--0-------|--0-------|--0-------|--0----0--10-10-10-10-10-10-10-|-----------|
-|-12-------|-14-------|-17-------|-12---12--12-12-12-12-12-12-12-|-----------|
-|--0-------|--0-------|--0-------|--0----0--10-10-10-10-10-10-10-|-----------|
-|-12-------|-14-------|-17-------|-12---12--10-10-10-10-10-10-10-|-----------|
-|--0-------|--0-------|--0-------|--0----0--10-10-10-10-10-10-10-|-----------|
 G1 Uh        oh          oh

-|-10-------|----------|--7-------|-10---10---8--8--8--8--8--8--8-|-----------|
-|-10-------|----------|--0-------|-10---10---8--8--8--8--8--8--8-|-----------|
-|-11-------|--9-------|--7-------|-11---11---9--9--9--9--9--9--9-|-----------|
-|-12-------|--9-------|--5-------|-12---12--10-10-10-10-10-10-10-|-----------|
-|-12-------|-11-------|----------|-12---12--10-10-10-10-10-10-10-|-----------|
-|-10-------|-10-------|----------|-10---10---8--8--8--8--8--8--8-|-----------|
 G2

-|--0-------|--0-------|--0-------|-0----------|-11--11--------|-0-----------|
-|--0-------|--0-------|--0-------|-0----------|-11--11--------|-0-----------|
-|-12-------|-14-------|-17-------|-0----------|-12--11--------|-0-----------|
-|--0-------|--0-------|--0-------|-0----------|-11--11--------|-0-----------|
-|-12-------|-14-------|-17-------|-0----------|-11--11--------|-0-----------|
-|--0-------|--0-------|--0-------|-0----------|-11--11--------|-0-----------|
 G1 Oh         oh         ohh

-|-10-------|----------|--7-------|-2----------|---------------|-------------|
-|-10-------|----------|--0-------|-3----------|---------------|-------------|
-|-11-------|--9-------|--7-------|-2----------|---------------|-------------|
-|-12-------|--9-------|--5-------|-0----------|---------------|-------------|
-|-12-------|-11-------|----------|------------|---------------|-------------|
-|-10-------|-10-------|----------|------------|---------------|-------------|
 G2

-|-11--11--------|-0--------||------------------------------------------------|
-|-11--11--------|-0--------||------------------------------------------------|
-|-12--11--------|-0--------||------------------------------------------------|
-|-11--11--------|-0--------||------------------------------------------------|
-|-11--11--------|-0--------||------------------------------------------------|
-|-11--11--------|-0--------||------------------------------------------------|
 G1                          End

-|---------------|----------||------------------------------------------------|
-|---------------|----------||------------------------------------------------|
-|---------------|----------||------------------------------------------------|
-|---------------|----------||------------------------------------------------|
-|---------------|----------||------------------------------------------------|
-|---------------|----------||------------------------------------------------|
 G2                          End



************************************

| x  Dead note

************************************
Suggest correction
comments
print report bad tab
1 comment total.
+1 reply
NikoFighters 10 Jul 06, 2014 07:05 AM

Lack of formatting. Lack of accuracy. Clearly wrong.

guest
You may want to rate the tab now too:
select rating
Wanna post a correction for this tab? Suggest correction