Oops, an error
Loading. Please wait.

Once Tab

version 1
version 1

Solo

Whole song

Interactive

3,295 views 6 this week
no commentswrite comment
1 2 3 4 5
2 more votes to show rating
add to favorites
launch autoscroll
font size
0
reset
how to read this tab
guitar tuner
backing track
0:00
0:00
×
Best way to learn
"Once"
Autoscroll
slow
fast
+/-
esc
set tempo
stop
-------------------------------------------------------------------------------
                             Once solo- Pearl Jam
-------------------------------------------------------------------------------
Tabbed by: i like popcorn
Email: primus_sucks42@yahoo.com

Tuning: standard tuning e, a, d, g, b, e

| /  slide up
| \  slide down
| h  hammer-on
| p  pull-off
| ~  vibrato
| +  harmonic
| x  Mute note

(w/wah and distortion)

e|---------------------------------------------------------------------|
B|--8b~---8b----8--5---------------------------------------------------|
G|--------------------------7h5--------7b--(7)h5---- 5h7--5~-----------|
D|-------------------------------- (7)---------------7-----------------|
A|---------------------------------------------------------------------|
E|---------------------------------------------------------------------|

e|---------------------5----------------------------------------------------|
B|-----------------5-----8p5------------------------------------------------|
G|--5/4-----7b---------------7b(7)/5------7--5------------------------------|
D|--------5--------------------------------7---------7--5-------------------|
A|----------------------------------------------------------7--5b---5--3----|
E|--------------------------------------------------------------------------|

e|--------------------------------------------------------------|wah wah off
B|--------------------------------------------------------------|
G|--------------------------------------------------------------|
D|--------------------------------------------------------------|
A|--5--5b--5--3-----3--3--3--3~--(3)/---------------------------|
E|-------------------5------------------------------------------|

e|--20b--20b--20b--20b--(20)-17------17---------------------------------------|
B|-------------------------------------------20------20b--(20)\---------------|
G|--------------------------------------------------------------------0-0-----|
D|--------------------------------------------------------------------0-0-----|
A|----------------------------------------------------------------------------|
E|----------------------------------------------------------------------------|

e|------------------------------8-------------8------8------8--10-----|
B|-------0------0-----8h10-----10~---------10----10-------------------|
G|--5\--0--/9-----9---------------------------------------------------|
D|--5\--0-------------------------------------------------------------|
A|--------------------------------------------------------------------|
E|--------------------------------------------------------------------|

e|--10b--(10)h8--10-----------------------------------------------------|
B|-------------------------8-8-8-8--6p0-----------------8-8-8-8---------|
G|-------------------------7-7-7-7---------6---5---0----7-7-7-7---------|
D|------------------------------------------------------0---------------|
A|----------------------------------------------------------------------|
E|----------------------------------------------------------------------|

e|---------------------------------------------------------------------------|
B|--6p0----------------------8-8-8-8--6p0----------------0-------------------|
G|---------6---5----------0---------------------6----5-----------------------|
D|------------------(5/7)-------------------------------------------7-7-7----|
A|---------------------------------------------------------(5/7)-------------|
E|---------------------------------------------------------------------------|

e|-------------------------------------------------------------|
B|---8p6p0--8/10--10p8-------------------8p6p0--8/10--10-------|
G|-------------------------------x--x--7-7-7-------------------|
D|-------------------------------------------------------------|
A|-------------------------------------------------------------|
E|-------------------------------------------------------------|

e|------------------------------------------------------------------------|
B|--10p8-------------------8p6p0--8/10--(10)--10p8------------------------|
G|-----------x--x---7-7-7-------------------------------------0--5+-------|
D|------------------------------------------------------------------------|
A|------------------------------------------------------------------------|
E|------------------------------------------------------------------------|

e|-------------------------------------------------------------------|
B|-------------------------------------------------------------------|
G|---0--5+---8-----8-8-----8-8----8-8-----8-8------8-----------------|
D|------------7-----7-7-----7-7----7-7-----7-7------7----------------|
A|------------5-----5-5-----5-5----5-5-----5-5------5----------------|
E|-------------------------------------------------------------------|
Suggest correction
Give kudos to tab author, rate the tab!
1 2 3 4 5
comments
print report bad tab
guest
You may want to rate the tab now too:
select rating
Wanna post a correction for this tab? Suggest correction