Oops, an error
Loading. Please wait.

Pendulum Tab

2,499 views 21 this week
no commentswrite comment
1 2 3 4 5
please rate
add to favorites
launch autoscroll
font size
0
reset
how to read this tab
guitar tuner
Tab Pro tools
  • play this tab
  • loop segment
  • change instrument
  • show fretboard
  • metronome
×
Best way to learn
"Pendulum"
Autoscroll
slow
fast
+/-
esc
set tempo
stop
Contributor
-------------------------------------------------------------------------------
                             Pendulum - Pearl Jam
-------------------------------------------------------------------------------
Tabbed by: boyaguitarra
E-mail: boyaguitarra@gmail.com

Tuning: Standard

more Pearl Jam Tabs: http://boyaguitarra.blogspot.com/2009/01/pearl-jam.html

source: http://boyaguitarra.blogspot.com/2013/11/pendulum-de-pearl-jam-stone-gossard.html

                             x5   
||-0------0------1------1------||-5------1------0------0------|-5-------------0-------------|
||-1------1------1------1------||-6------1------1------1------|-6------5------1-------------|
|*-2------2------2------2------*|-7------2------2------2------|-7------5------2-------------|
|*-2------2------3------3------*|-7------3------2------2------|-7------5------2-------------|
||-0------0------3------3------||-5------3------0------0------|-5------3------0-------------|
||---------------1------1------||--------1--------------------|-----------------------------|
                             x3   
||-0------0------1------1------||-5------1------0------0------|-5-------------0------0------|
||-1------1------1------1------||-6------1------1------1------|-6------5------1------1------|
|*-2------2------2------2------*|-7------2------2------2------|-7------5------2------2------|
|*-2------2------3------3------*|-7------3------2------2------|-7------5------2------2------|
||-0------0------3------3------||-5------3------0------0------|-5------3------0------0------|
||---------------1------1------||--------1--------------------|-----------------------------|

|------5---------8--7--5------------|----8--7--5------------------|
|-----5--------5-------------5------|--5--------------------------|
|----5--------5---------------------|-5-------------5/4----4/2----|
|---7-------------------------------|---------------7-------------|
|-----------------------------------|-----------------------------|
|-----------------------------------|-----------------------------|

|-12--10--------------------|-5---------7-------8---|----8------10---------|
|---------13-12-13--12--10--|----5---10------10-----|-10-----10------------|
|---------------------------|-----------------------|----------------------|
|---------------------------|-----------------------|-----------------7----|
|---------------------------|-----------------------|-------------------0--|
|---------------------------|-----------------------|----------------------|
                       x3
||-0----------1----------|||-1-----1-----0-----||-5---------7-------8---|----8------10---------|
||-1----------1----------|||-3-----1-----1-----||----5---10------10-----|-10-----10------------|
|*-2----------2----------*|*-2-----2-----2-----*|-----------------------|----------------------|
|*-2----------3----------*|*-0-----3-----2-----*|-----------------------|-----------------7----|
||-0----------3----------|||-------3-----0-----||-----------------------|-------------------0--|
||------------1----------|||-------1-----------||-----------------------|----------------------|


source: http://boyaguitarra.blogspot.com/2013/11/pendulum-de-pearl-jam-mike-mccready.html 

capo +1 
                             x5 
||-4------4------0------0------||-4------0------4------4------|-4-------------4-------------|
||-4------4------0------0------||-5------0------4------4------|-5-------------4-------------|
|*-4------4------1------1------*|-6------1------4------4------|-6------4------4-------------|
|*-6------6------2------2------*|-6------2------6------6------|-6------4------6-------------|
||-6------6------2------2------||-4------2------6------6------|-4------2------6-------------|
||-4------4------0------0------||--------0------4------4------|---------------4-------------|
                             x3
||-4------4------0------0------||-4------0------4------4------|-4-------------4------4------|
||-4------4------0------0------||-5------0------4------4------|-5-------------4------4------|
|*-4------4------1------1------*|-6------1------4------4------|-6------4------4------4------|
|*-6------6------2------2------*|-6------2------6------6------|-6------4------6------6------|
||-6------6------2------2------||-4------2------6------6------|-4------2------6------6------|
||-4------4------0------0------||--------0------4------4------|---------------4------4------|
                            
||-0------0------4------4------||-0------0------|-4------0------4------4------|
||-0------0------4------4------||-0------0------|-5------0------4------4------|
|*-1------1------4------4------*|-1------1------|-6------1------4------4------|
|*-2------2------6------6------*|-2------2------|-6------2------6------6------|
||-2------2------6------6------||-2------2------|-4------2------6------6------|
||-0------0------4------4------||-0------0------|--------0------4------4------|

|-4-------------4------4------|
|-5-------------4------4------|
|-6------4------4------4------|
|-6------4------6------6------|
|-4------2------6------6------|
|---------------4------4------|

                                                x3
|-4-4-4-||-4---4-4-4----4-4-4-|-0---0-0-0---0-0-0-||
|-4-4-4-||-4---4-4-4----4-4-4-|-0---0-0-0---0-0-0-||
|-4-4-4-|*-4---4-4-4----4-4-4-|-1---1-1-1---1-1-1-*|
|-6-6-6-|*-6---6-6-6----6-6-6-|-2---2-2-2---2-2-2-*|
|-6-6-6-||-6---6-6-6----6-6-6-|-2---2-2-2---2-2-2-||
|-4-4-4-||-4---4-4-4----4-4-4-|-0---0-0-0---0-0-0-||

||-4--4-4--0--0-0--4--4-4--4--4-4-|-4--4-4----------4--4-4--4--4-4-||
||-5--5-5--0--0-0--4--4-4--4--4-4-|-5--5-5----------4--4-4--4--4-4-||
|*-6--6-6--1--1-1--4--4-4--4--4-4-|-6--6-6--4--4-4--4--4-4--4--4-4-*|
|*-6--6-6--2--2-2--6--6-6--6--6-6-|-6--6-6--4--4-4--6--6-6--6--6-6-*|
||-4--4-4--2--2-2--6--6-6--6--6-6-|-4--4-4--2--2-2--6--6-6--6--6-6-||
||---------0--0-0--4--4-4--4--4-4-|-----------------4--4-4--4--4-4-||
comments
We did not receive enough feedback on this tab! Please rate:
print report bad tab
1 2 3 4 5
I want to post or [tab]
guest
You may want to rate the tab now too:
select rating
Please do not post tabs as comments. Select "correction" instead!