Oops, an error
Loading. Please wait.

Present Tense Chords

version 1
version 1

Whole song

  • This is how you play it with one guitar.

Interactive

43 views 9 this week
no commentswrite comment
1 2 3 4 5
3 more votes to show rating
add to favorites
launch autoscroll
font size
0
reset
transpose
0
reset
simplify chords
display chords
guitar tuner
Autoscroll
slow
fast
+/-
esc
set tempo
stop
Help us to improve Ultimate-Guitar.com Take our survey!
×
Author
Difficulty
Tuning
intermediate
D A D G B E
About this tab version
This is how you play it with one guitar. Was this info helpful? Yes No
Present Tense
From: Andrew Hutchinson

Drop D tuning: DADGBe

Chords:
    D   G   F   A#  A   G1   D2
E|--0---5---3---0---0---0----12-------------------------|
B|--0---5---3---6---5---3----12-------------------------|
G|--0---5---3---7---6---4----12-------------------------|
D|--0---5---3---8---7---5----12-------------------------|
A|--0---5---3---0---0---0----12-------------------------|
D|--0---5---3---X---X---X----12-------------------------|


Verse (main riff):

E|------------------------------------------------------|
B|---10-------10------10-----10--------10-------10------|
G|------7-----------------------7-----------------------|
D|------------------------------------------------------|
A|------------------------------------------------------|
D|-0--------0-----0-------10-------10-------10----------|


E|----------------------------7---7---7-----------------|
B|-----10------10-------10----8---7---10----------------|
G|---------7------------------7---7---9-----------------|
D|----------------------------7---7---7-----------------|
A|----------------------------7---7---7-----------------|
D|---9-------9------9-----------------------------------|



[Verse 1]
(main riff)

Do you see the way that tree bends
does it inspire,
leaning out to catch the suns rays
a lesson to be applied
are you getting something out of this
all encompassing trip


[Chorus]

D2 (slide)                         G    
You can't spend your time alone,
F                                G         D        G        F
redigesting past regrets.....Oh
G - D                            G        
You can't come to terms  and realise
F                                                    D        G         F
your the only one who cannot forgive yourself .....Oh
            D
Makes much more sense,
G - F                        D
to live in the present tense


[2nd verse:] 
(main riff)

Have you ideas on how this life ends,
Checked your ends and studied the line,
Have you ever believed that the road ahead
sands off into the light
seems that needlessly it getting harder
to find an approach and no where to live
are we getting something out of this
all encompassing trip

[Chorus]

D2 (slide)                         G    
You can't spend your time alone,
F                                G         D        G        F
redigesting past regrets.....Oh
G - D                            G        
You can't come to terms  and realise
F                                                    D        G         F
your the only one who cannot forgive yourself .....Oh
            D
Makes much more sense,
G - F                        
to live in the present tense

[Outro]

A#     A    G1
Suggest correction
Give kudos to tab author, rate the tab!
1 2 3 4 5
comments
print report bad tab
guest
You may want to rate the tab now too:
select rating
Wanna post a correction for this tab? Suggest correction