Oops, an error
Loading. Please wait.

Red Mosquito Bass

version 1
version 1

Whole song

Interactive

1,070 views 1 this week
no commentswrite comment
1 2 3 4 5
1 last vote to show rating
add to favorites
launch autoscroll
font size
0
reset
guitar tuner
backing track
0:00
0:00
×
Best way to learn
"Red Mosquito"
Autoscroll
slow
fast
+/-
esc
set tempo
stop
Tuning
E A D G
Red Mosquito
Pearl Jam
Originally Tabbed by Nick Key (nkey@ionet.net)
Corrections by DanielSonFocus

INTRO - PART 1: (Repeat first 2 bars 4 times)
G-|------------------------|-------------------------|:
D-|-------------------12---|-------------------------|:
A-|-5-55-0-00-5-55-/12--12/|-5-55-0-00-5-55-----3-5--|:
E-|------------------------|----------------3h5------|:

INTRO - PART 2:
Play this for the last 2 bars of the intro
G-|------------------------|-------------------------|
D-|-------------------12---|-------------------------|
A-|-5-55-0-00-5-55-/12--12/|-5-55-0-00-5-55-333~-----|
E-|------------------------|-------------------------|


VERSE 1:
G|--------------------------------------------------------|
D|--------------------------------------------5-----7-----|
A|--5--5h7-8---5--5h7-3---5--5h7-8--5--33h5-7---7-8---8---|
E|---5----------5----------5----------------------------8-|

Repeat INTRO PART 2

CHORUS: (2X) (Hold the last C for 2 measures)
G-|---------------------|
D-|---------------------|
A-|-8--3--6--1--3-------|
E-|---------------------|

Repeat INTRO PART 1

VERSE 2:
                                    Play this part twice
G|---------------------------------|-----------------------|
D|---------------------------------|-----------5-----7-----|
A|--5--5h7-8---5--5h7-3---5--5h7-8-|-5--33h5-7---7-8---8---|
E|---5----------5------------5-----|---------------------8-|


CHORUS: (2X) (Hold the last C for 2.5 measures - PAUSE)
G-|--------------------|
D-|--------------------|
A-|-8--3--6--1--3------|
E-|--------------------|

Repeat INTRO - PART 1 - 6X

CHORUS/OUTRO - PART 2
G-|--------------------|
D-|--------------------|
A-|-8--3--6--1---------|
E-|--------------------|
Suggest correction
Give kudos to tab author, rate the tab!
1 2 3 4 5
comments
print report bad tab
guest
You may want to rate the tab now too:
select rating
Wanna post a correction for this tab? Suggest correction