Oops, an error
Loading. Please wait.

Sad Tab

version 1
version 1

Whole song

Interactive

39,639 views 81 this week
1 commentread comment
1 2 3 4 5
x 11
add to favorites
launch autoscroll
font size
0
reset
how to read this tab
guitar tuner
×
Best way to learn
"Sad"
Autoscroll
slow
fast
+/-
esc
set tempo
stop
Author
[Intro/Verse]
(guitar 1)
e|--------------------------------|
B|--------------------------------|
G|--2------2----220--2--0--2------|
D|--0----------------------0------|
A|--------------------------------|
E|--------------------------------|

e|--------------------------------|
B|--------------------------------|
G|-------222--2---5---3--2--------|
D|---------------------------0----|
A|--------------------------------|
E|--------------------------------|

e|--------------------------------|
B|--------------------------------|
G|---------2------0--2---2--------|
D|--3---3-----3--------------2----|
A|--------------------------------|
E|--------------------------------|

e|--------------------------------|
B|--------------------------------|
G|------0--0------0---2--2--2-----|
D|------------2-------------------|
A|--------------------------------|
E|--------------------------------|

(guitar 2)
(after two measures)
5    5    5    5
5    5    5    5
7    7    5    7
7    7    7    7
x    x    x    x
x    x    x    x

[Bridge]
D D F A

[Chorus]
A# A D F

[Interlude]
D D D 
DCA C A C A
D D D
DCA C A C A C A

[Solo]
(guitar 1)
e|--------------------------------|
B|--------------------------------|
G|--2------2----220--2--0--2------|
D|--0----------------------0------|
A|--------------------------------|
E|--------------------------------|

e|--------------------------------|
B|--------------------------------|
G|-------222--2---5---3--2--------|
D|---------------------------0----|
A|--------------------------------|
E|--------------------------------|

e|--------------------------------|
B|--------------------------------|
G|---------2------0--2---2--------|
D|--3---3-----3--------------2----|
A|--------------------------------|
E|--------------------------------|

e|--------------------------------|
B|--------------------------------|
G|------0--0------0---2--2--2-----|
D|------------2-------------------|
A|--------------------------------|
E|--------------------------------|

F E A D

(guitar 2) (lead)
e|--------------------------------|
B|--------------------------------|
G|----------------5---7-------7b--|
D|--7------7----------------------|
A|--------------------------------|
E|--------------------------------|

e|--------------------------------|
B|--------------------------------|
G|---------7------5--7b--7b--5----|
D|--------------------------------|
A|--------------------------------|
E|--------------------------------|  (2x)

e|--------------------------------|
B|--------------------------------|
G|----------------5---7-------7b--|
D|--7------7----------------------|
A|--------------------------------|
E|--------------------------------|

e|--------------------------------|
B|--------------------------------|
G|---------7------7b--7b-7b--7b---|
D|--------------------------------|
A|--------------------------------|
E|--------------------------------|

e|--------------------------------|
B|--------------------------------|
G|--7p5-----------5---7----5--7b--|
D|-----7---7----------------------|
A|--------------------------------|
E|--------------------------------|

e|--------------------------------|
B|--------------------------------|
G|----------------5---7-------7b--|
D|--7------7----------------------|
A|--------------------------------|
E|--------------------------------|

e|--------------------------------|
B|--------------------------------|
G|----------------------------7b--|
D|--------------------------------|
A|--------------------------------|
E|--------------------------------|


************************************

| b  Bend
| p  Pull-off

************************************
Suggest correction
comments
print report bad tab
1 comment total.
0 reply
bert is 10 Apr 02, 2009 11:19 AM

its in Dm i think

guest
You may want to rate the tab now too:
select rating
Wanna post a correction for this tab? Suggest correction