Oops, an error
Loading. Please wait.

Sad Tab

version 1
version 1

Whole song

Interactive

38,277 views 45 this week
1 commentread comment
1 2 3 4 5
x 11
add to favorites
launch autoscroll
font size
0
reset
how to read this tab
guitar tuner
Autoscroll
slow
fast
+/-
esc
set tempo
stop
Help us to improve Ultimate-Guitar.com Take our survey!
×
Author
updates: 21st March added Lyrics

INTRO AND VERSE

guitar 1

e|--------------------------------|
B|--------------------------------|
G|--2------2----220--2--0--2------|
D|--0----------------------0------|
A|--------------------------------|
E|--------------------------------|

e|--------------------------------|
B|--------------------------------|
G|-------222--2---5---3--2--------|
D|---------------------------0----|
A|--------------------------------|
E|--------------------------------|


e|--------------------------------|
B|--------------------------------|
G|---------2------0--2---2--------|
D|--3---3-----3--------------2----|
A|--------------------------------|
E|--------------------------------|


e|--------------------------------|
B|--------------------------------|
G|------0--0------0---2--2--2-----|
D|------------2-------------------|
A|--------------------------------|
E|--------------------------------|


guitar 2 (after two measures)

5    5    5    5
5    5    5    5
7    7    5    7
7    7    7    7
x    x    x    x
x    x    x    x



BRIDGE

D D F A


CHORUS

A# A D F


INTERLUDE

D D D 

DCA C A C A

D D D

DCA C A C A C A


SOLO

guitar 1 (rhythm)

F E A D


guitar 2 (lead)

e|--------------------------------|
B|--------------------------------|
G|----------------5---7-------7b--|
D|--7------7----------------------|
A|--------------------------------|
E|--------------------------------|

e|--------------------------------|
B|--------------------------------|
G|---------7------5--7b--7b--5----|
D|--------------------------------|
A|--------------------------------|
E|--------------------------------|  (reapeat 2x)


e|--------------------------------|
B|--------------------------------|
G|----------------5---7-------7b--|
D|--7------7----------------------|
A|--------------------------------|
E|--------------------------------|


e|--------------------------------|
B|--------------------------------|
G|---------7------7b--7b-7b--7b---|
D|--------------------------------|
A|--------------------------------|
E|--------------------------------|


e|--------------------------------|
B|--------------------------------|
G|--7p5-----------5---7----5--7b--|
D|-----7---7----------------------|
A|--------------------------------|
E|--------------------------------|


e|--------------------------------|
B|--------------------------------|
G|----------------5---7-------7b--|
D|--7------7----------------------|
A|--------------------------------|
E|--------------------------------|


e|--------------------------------|
B|--------------------------------|
G|-----let ring---------------7b--|
D|--------------------------------|
A|--------------------------------|
E|--------------------------------|

LYRICS 

All the photographs are peeling 
and colors turn to gray, he stayed 
in his room with memories for days, he faced 
an undertow of future's laid to waste, embraced 
by the loss of one he could not replace 

and there's no reason that she'd passed 
and there is no god with a plan, it's sad 
and his loneliness is proof, it's sad 
he could only love you, it's sad

the door swings through a passing fable 
a fate we may delay, we say 
holding on, live within our embrace 
he lit a match, he laid in bed 
hoping their dreams will bring her back, it's sad 
and his loneliness is cruel, it's sad
he could only love you, it's sad 

holding his last breath, believing 
he'll make his way 
if she's not forgotten 
he's haunted 
he's searching for escape 

if just one wish could bring her back, it's sent 
and his loneliness is proof, it's sad 
he will always love you, he said.


dont forget to rate!
Suggest correction
comments
print report bad tab
1 comment total.
0 reply
bert is 10 Apr 02, 2009 03:19 PM

its in Dm i think

guest
You may want to rate the tab now too:
select rating
Wanna post a correction for this tab? Suggest correction