Oops, an error
Loading. Please wait.

Smile Tab

version 1
version 1

Whole song

Interactive

19,491 views 63 this week
1 commentread comment
1 2 3 4 5
x 7
add to favorites
launch autoscroll
font size
0
reset
how to read this tab
guitar tuner
backing track
0:00
0:00
×
Best way to learn
"Smile"
Autoscroll
slow
fast
+/-
esc
set tempo
stop
Smile
Transcribed by Stealth (stealth@coolgold.com.au)

[Intro/Verse]
Em      Am      Bm      Am

[Lead]
e|:-------------------------------|
B|:--------------------------15\--|
G|:--------------------14h16------|
D|:---------12\-------------------|     (x2)
A|:---12h14-----------------------|
E|:-------------------------------|

[Chorus]
G       C       D       C

[Solo]
e|:----------------------------------------|
B|:----------------------------------------|
G|:----------------------------------------|
D|:---------12----14-12-----------12----14-|    (x3)
A|:---12h14----14-----------12h14----14----|
E|:----------------------------------------|

e|:---------------------------------------|
B|:---------------------------------------|
G|:---------------------------------------|
D|:---------12----14-12-----------12-(12)-|
A|:---12h14----14-----------12h14---------|
E|:---------------------------------------|

e|:----------------------------------------------------|
B|:---17-15-----17-15--------------17-15---------------|
G|:----------------------------------------------------|
D|:-------------------------12-----------------12-(12)-|
A|:-------------------12h14--------------12h14---------|
E|:----------------------------------------------------|

[Outro]
e|:---------------------------|
B|:---------------------------|
G|:---------------------------|         (Repeat many times and fade)
D|:---------------------------|         With slight variations
A|:-------5---7-5-----5-----7-|
E|:---5h7---7-----5h7---(7)---|

************************************

| \    Slide down
| h    Hammer-on
| (n)  Ghost note

************************************
Suggest correction
comments
print report bad tab
1 comment total.
0 reply
Alien_from_a_cd 420 May 07, 2007 04:58 AM

Nice.

guest
You may want to rate the tab now too:
select rating
Wanna post a correction for this tab? Suggest correction