Oops, an error
Loading. Please wait.

Sonic Reducer Live bass

version 2
version 2

Whole song

  • This is a tab of Pearl Jam playing Sonic Reducer w... Show more
7 views 1 this week
no commentswrite comment
1 2 3 4 5
3 more votes to show rating
add to favorites
×
Save as Personal and add changes to this tab that will be seen only by you. Learn more ›
×
You can save this tab as Personal to edit and correct it or add notes. All changes will be seen only by you. Learn more »
launch autoscroll
font size
0
reset
guitar tuner
edit
Autoscroll
slow
fast
+/-
esc
set tempo
stop
Author
Difficulty
About this tab version
This is a tab of Pearl Jam playing Sonic Reducer with Mudhoney live at the Orpheum Theater. Was this info helpful? Yes No
Sonic Reducer Live at Orpheum Theatre - https://www.youtube.com/watch?v=S9y5cWifNUc
Pearl Jam

Bass Tab - Tabbed by DanielSonFocus

INTRO
G|-------------|
D|-------------|
A|-4-2~--------|
E|-------------|

Guitar plays 2 Measures

VERSE (3X)
G|---------|
D|---------|
A|-4-------|
E|---4-5-2-| (...don’t even need you too...)

PRE-CHORUS (1X) (...i got my time machine...)
G|---------|
D|---------|
A|---------|
E|-0-2-5-7-|

CHORUS (2X)
G|--------------------------------------------|
D|--------------------------------------------|
A|-4h6-6-6-6---4h6-6-6-6----------------------|
E|-------------------------5-5-5-5---7-7-7-7--|

VERSE (5X) (... i’m not just anyone...)
G|---------|
D|---------|
A|-4-------|
E|---4-5-2-|

PRE-CHORUS (1X)
G|---------|
D|---------|
A|---------|
E|-0-2-5-7-|

CHORUS (4X)
G|--------------------------------------------|
D|--------------------------------------------|
A|-4h6-6-6-6---4h6-6-6-6----------------------|
E|-------------------------5-5-5-5---7-7-7-7--|

SOLO over VERSE (4X)
G|---------|
D|---------|
A|-4-------|
E|---4-5-2-|

VERSE (2X)
G|---------|
D|---------|
A|-4-------|
E|---4-5-2-|

VERSE (3X)
G|---------|
D|---------|
A|-4-------|
E|---4-5-2-|

PRE-CHORUS (1X)
G|---------|
D|---------|
A|---------|
E|-0-2-5-7-|

CHORUS (4X)
G|--------------------------------------------|
D|--------------------------------------------|
A|-4h6-6-6-6---4h6-6-6-6----------------------|
E|-------------------------5-5-5-5---7-7-7-7--|

VERSE/OUTRO (3X)
G|---------|
D|---------|
A|-4-------|
E|---4-5-2-|

END
G|------------------------------------------------------------------------|
D|------------------------------------------------------------------------|
A|-4---4-4-4-4-4-4--------------------------------------------------------|
E|-------------------4---4-4-4-4-4-4---------5-----------7-------------9--|
Suggest correction
Creating personal tab
Creating personal tab
You can edit any tab online and save it as your Personal.

You can edit, replace or remove any tab part or add personal notes – all changes will be seen only by you.

Personal tabs can be accessed anytime from any device, even offline.
Learn more »
Give kudos to tab author, rate the tab!
1 2 3 4 5
comments
print report bad tab
guest
You may want to rate the tab now too:
select rating
Wanna post a correction for this tab? Suggest correction