Oops, an error
Loading. Please wait.

The Fixer bass

version 1
version 1

Whole song

Interactive

18,927 views 12 this week
1 commentread comment
1 2 3 4 5
x 5
add to favorites
×
Save as Personal and add changes to this tab that will be seen only by you. Learn more ›
×
You can save this tab as Personal to edit and correct it or add notes. All changes will be seen only by you. Learn more »
launch autoscroll
font size
0
reset
guitar tuner
edit
Autoscroll
slow
fast
+/-
esc
set tempo
stop
The Fixer - Pearl Jam
Bass Tab
Drop D

Intro

G|-------------------------|-----------------|-------------------------|-----------------|
D|-----------------------5-|-5-5---2-2-2-----|-----------------------5-|-5-5---2-2-2-----|
A|-------------------------|---------------2-|-------5-----------------|---------------2-|
D|-------------------------|-----------------|-------0-----------------|-----------------|
   1 + 2 + 3 + 4 + 5 + 6 +   1 + 2 + 3 + 4 +   1 + 2 + 3 + 4 + 5 + 6 +   1 + 2 + 3 + 4 +

G|-------------------------|-----------------|-------------------------||
D|-----------------------5-|-5-5---2-2-2-----|-------------------------||
A|-------5-----------------|---------------2-|-------5-----------------||
D|-------0-----------------|-----------------|-------0-----------------||
   1 + 2 + 3 + 4 + 5 + 6 +   1 + 2 + 3 + 4 +   1 + 2 + 3 + 4 + 5 + 6 +  

Verse

G|-------------------------|-------------------------|-------------------------|
D|-------------------2-2---|-------------------------|-------------------------|
A|-------------------------|-5-5---5-5-5---2-2-2-2-0-|-------------------------|
D|-5-5---5-5-5---5-2-------|-------------------------|-5-5---5-5-5---5-2-2-----|
   1 + 2 + 3 + 4 + 5 + 6 +   1 + 2 + 3 + 4 + 5 + 6 +   1 + 2 + 3 + 4 + 5 + 6 + 

G|-------------------------|-------------------------|-------------------------|
D|-------------------------|-------------------2-2---|-------------------------|
A|-5-5---5-5-5---2-2-2-2-0-|-------------------------|-5-5---5-5-5---2-2-2-2-0-|
D|-------------------------|-5-5---5-5-5---5-2-------|-------------------------|
   1 + 2 + 3 + 4 + 5 + 6 +   1 + 2 + 3 + 4 + 5 + 6 +   1 + 2 + 3 + 4 + 5 + 6 + 

G|-------------------------|-------------------------||
D|-------------------------|-------------------------||
A|-------------------------|-5-5---5-5-5---2-2-2-2-0-||
D|-5-5---5-5-5---5-2-2-----|-------------------------||
   1 + 2 + 3 + 4 + 5 + 6 +   1 + 2 + 3 + 4 + 5 + 6 +   

Chorus

G|-----------------|-----------------|-----------------|-----------------|
D|-----------------|-----------------|-----------------|-----------------|
A|-----------------|-----------------|-5-5-5-5-5-5-5-4-|-2-2-2-2-2-2-2-0-|
D|-5-5-5-5-5-5-5-4-|-2-2-2-2-2-2-2-2-|-----------------|-----------------|
   1 + 2 + 3 + 4 +   1 + 2 + 3 + 4 +   1 + 2 + 3 + 4 +   1 + 2 + 3 + 4 +

G|-----------------|-----------------|-----------------|-----------------||
D|-----------------|-----------------|-----------------|-----------------||
A|-----------------|-----------------|-5-5-5-5-5-4-5-4-|-2-2-2-2-2-2-2-0-||
D|-5-5-5-5-5-4-5-4-|-2-2-2-2-2-2-2-2-|-----------------|-----------------||
   1 + 2 + 3 + 4 +   1 + 2 + 3 + 4 +   1 + 2 + 3 + 4 +   1 + 2 + 3 + 4 +

Verse

G|-------------------------|-------------------------|-------------------------|
D|-------------------2-2---|-------------------------|-------------------------|
A|-------------------------|-5-5---5-5-5---2-2-2-2-0-|-------------------------|
D|-5-5---5-5-5---5-2-------|-------------------------|-5-5---5-5-5---5-2-2-----|
   1 + 2 + 3 + 4 + 5 + 6 +   1 + 2 + 3 + 4 + 5 + 6 +   1 + 2 + 3 + 4 + 5 + 6 + 

G|-------------------------|-------------------------|-------------------------|
D|-------------------------|-------------------------|-------------------------|
A|-5-5---5-5-5---2-2-2-2-0-|-------------------------|-5-5---5-5-5---2-2-2-2-0-|
D|-------------------------|-5-5---5-5-5---5-2-2-----|-------------------------|
   1 + 2 + 3 + 4 + 5 + 6 +   1 + 2 + 3 + 4 + 5 + 6 +   1 + 2 + 3 + 4 + 5 + 6 + 

G|-------------------------|-------------------------||
D|-------------------2-2---|-------------------------||
A|-------------------------|-5-5---5-5-5---2-2-2-2-0-||
D|-5-5---5-5-5---5-2-------|-------------------------||
   1 + 2 + 3 + 4 + 5 + 6 +   1 + 2 + 3 + 4 + 5 + 6 +   

Chorus

G|-----------------|-----------------|-----------------|-----------------|
D|-----------------|-----------------|-----------------|-----------------|
A|-----------------|-----------------|-5---5-5-5-4-5-4-|-2---2-2-2-2-2-2-|
D|-5-5-5-5-5-4-5-4-|-2---2-2-2-2-2-2-|-----------------|-----------------|
   1 + 2 + 3 + 4 +   1 + 2 + 3 + 4 +   1 + 2 + 3 + 4 +   1 + 2 + 3 + 4 +

G|-----------------|-----------------|-----------------|-----------------||
D|-----------------|-----------------|-----------------|-----------------||
A|-----------------|-----------------|-5-5-5-5-5-4-5-4-|-2-2-2-2-2-2-2-0-||
D|-5---5-5-5-4-5-4-|-2---2-2-2-2-2-2-|-----------------|-----------------||
   1 + 2 + 3 + 4 +   1 + 2 + 3 + 4 +   1 + 2 + 3 + 4 +   1 + 2 + 3 + 4 +

Verse

G|-------------------------|-------------------------|-------------------------|
D|-------------------2-2---|-------------------------|-------------------------|
A|-------------------------|-5-5---5-5-5---2-2-2-2-0-|-------------------------|
D|-5-5---5-5-5---5-2-------|-------------------------|-5-5---5-5-5---5-2-2-----|
   1 + 2 + 3 + 4 + 5 + 6 +   1 + 2 + 3 + 4 + 5 + 6 +   1 + 2 + 3 + 4 + 5 + 6 + 

G|-------------------------|-------------------------||
D|-------------------------|-------------------------||
A|-5-5---5-5-5-5-2-2-------|-------------------------||
D|-------------------------|-------------------------||
   1 + 2 + 3 + 4 + 5 + 6 +   1 + 2 + 3 + 4 + 5 + 6 +

Bridge

G|-----------------|-----------------|-----------------|-----------------|
D|-----------------|-----------------|-----------------|-----------------|
A|-3---3---3---3-3-|-3---3-3-3-3-3--/|/6---6---6-5-6-8-|---6---5---6---\\|
D|-----------5-----|-----------------|-----------------|-----------------|
   1 + 2 + 3 + 4 +   1 + 2 + 3 + 4 +   1 + 2 + 3 + 4 +   1 + 2 + 3 + 4 +

G|-----------------|-----------------|-----------------|-----------------|
D|-------//9-9-9---|-7-7-7-7---------|-7---7---7-7-7---|-7-7-7---7-7-7-\\|
A|\2---2-----------|---------9---9---|-----------------|-----------------|
D|-----------------|-----------------|-----------------|-----------------|
   1 + 2 + 3 + 4 +   1 + 2 + 3 + 4 +   1 + 2 + 3 + 4 +   1 + 2 + 3 + 4 +

G|-----------------|-----------------|-----------------|-----------------|
D|-----------------|-----------------|-----------------|-----------------|
A|-3-------3---3-3-|-3-------3-3-3--/|/6---6---6-5-6-8-|---6---5---6---\\|
D|-----------5-----|-----------------|-----------------|-----------------|
   1 + 2 + 3 + 4 +   1 + 2 + 3 + 4 +   1 + 2 + 3 + 4 +   1 + 2 + 3 + 4 +

G|-----------------|-----------------|-----------------|-----------------||
D|-------//9-9-9---|-7-7-7-7---------|-7-7-7-7-7-7-7-7-|-7-7-7-7-7-7-7-\\||
A|\2---2-----------|---------9---9---|-----------------|-----------------||
D|-----------------|-----------------|-----------------|-----------------||
   1 + 2 + 3 + 4 +   1 + 2 + 3 + 4 +   1 + 2 + 3 + 4 +   1 + 2 + 3 + 4 +

Interlude

G|-------------------------|-----------------|-------------------------|-----------------|
D|-----------------------5-|-5-5---2-2-2-----|-----------------------5-|-5-5---2-2-2-----|
A|-2-----------------------|---------------2-|-------5-----------------|---------------2-|
D|-------------------------|-----------------|-------0-----------------|-----------------|
   1 + 2 + 3 + 4 + 5 + 6 +   1 + 2 + 3 + 4 +   1 + 2 + 3 + 4 + 5 + 6 +   1 + 2 + 3 + 4 +

G|-------------------------|-----------------|-----------------|-----------------||
D|-----------------------5-|-5-5---2-2-2-----|-----------------|-----------------||
A|-------5-----------------|---------------2-|-------5---------|-----------------||
D|-------0-----------------|-----------------|-------0---------|-----------------||
   1 + 2 + 3 + 4 + 5 + 6 +   1 + 2 + 3 + 4 +   1 + 2 + 3 + 4 +   1 + 2 + 3 + 4 + 


Chorus

G|-----------------|-----------------|-----------------|-----------------|
D|-----------------|-----------------|-----------------|-----------------|
A|-----------------|-----------------|-5---5-5-5-4-5-4-|-2---2-2-2-2-2-0-|
D|-5-5-5-5-5-4-5-4-|-2---2-2-2-2-2-2-|-----------------|-----------------|
   1 + 2 + 3 + 4 +   1 + 2 + 3 + 4 +   1 + 2 + 3 + 4 +   1 + 2 + 3 + 4 +

G|-----------------|-----------------|-----------------|-----------------|
D|-----------------|-----------------|-----------------|-----------------|
A|-----------------|-----------------|-5---5-5-5-4-5-4-|-2-2-2-0-2-0-2-0-|
D|-5---5-5-5-4-5-4-|-2---2-2-2-2-2-2-|-----------------|-----------------|
   1 + 2 + 3 + 4 +   1 + 2 + 3 + 4 +   1 + 2 + 3 + 4 +   1 + 2 + 3 + 4 +

G|-----------------|-----------------|-----------------|-----------------|
D|-----------------|-----------------|-----------------|-----------------|
A|-----------------|-----------------|-5---5-5-5-7-5-4-|-2-2-2-2-2-2-2-0-|
D|-5---5-5-5-4-5-4-|-2---2-2-2-2-2-2-|-----------------|-----------------|
   1 + 2 + 3 + 4 +   1 + 2 + 3 + 4 +   1 + 2 + 3 + 4 +   1 + 2 + 3 + 4 +

G|-----------------|-----------------|-----------------|-----------------|
D|-----------------|-----------------|-----------------|---------9-9-9---|
A|-----------------|-----------------|-5-5-5-5-5-5-5-0-|-2-2-2/9---------|
D|-5---5-5-5-4-5-4-|-2---2-2-2-2-2-2-|-----------------|-----------------|
   1 + 2 + 3 + 4 +   1 + 2 + 3 + 4 +   1 + 2 + 3 + 4 +   1 + 2 + 3 + 4 +

G|-----------------|-----------------|-----------------|-----------------|
D|-----------------|-----------------|-----------------|-----------------|
A|-----------------|-----------------|-5-5-5-5-5-5-5-4-|-2-2-2-0-2-0-2-0-|
D|-5---5-5-5-4-5-4-|-2---2-2-2-2-2-2-|-----------------|-----------------|
   1 + 2 + 3 + 4 +   1 + 2 + 3 + 4 +   1 + 2 + 3 + 4 +   1 + 2 + 3 + 4 +

                                       Start to fade out.................
G|-----------------|-----------------|-----------------|-----------------|
D|-----------------|-----------------|-----------------|-----------------|
A|-----------------|-----------------|-5-5-5-5-5-7-5-4-|-2-2-2-2-2-2-2-0-|
D|-5-5-5-5-5-4-5-4-|-2-2-2---2-2-2-2-|-----------------|-----------------|
   1 + 2 + 3 + 4 +   1 + 2 + 3 + 4 +   1 + 2 + 3 + 4 +   1 + 2 + 3 + 4 +

G|-----------------|-----------------|-----------------|-----------------|
D|-----------------|-----------------|-----------------|-----------------|
A|-----------------|-----------------|-5-5-5-5-5-4-5-4-|-2-2-2-2-2-2-2-0-|
D|-5-5-5-5-5-4-5-4-|-2-2-2-2-2-2-2-2-|-----------------|-----------------|
   1 + 2 + 3 + 4 +   1 + 2 + 3 + 4 +   1 + 2 + 3 + 4 +   1 + 2 + 3 + 4 +

G|-----------------|-----------------||
D|-----------------|-----------------||
A|-----------------|-----------------||
D|-5-5-5-5-5-4-5-4-|-2-2-2-2-2-2-2-2-||
   1 + 2 + 3 + 4 +   1 + 2 + 3 + 4 +  
Suggest correction
Creating personal tab
Creating personal tab
You can edit any tab online and save it as your Personal.

You can edit, replace or remove any tab part or add personal notes – all changes will be seen only by you.

Personal tabs can be accessed anytime from any device, even offline.
Learn more »
comments
print report bad tab
1 comment total.
0 reply
Slappytime 93 May 31, 2011 11:46 AM

Dude this is great but it would be greater (i'm not saying yours is wrong) if you made it:
G|-------------------7---|
D|-5-5-5--2-2-2------0---|
A|---------------2---5---|
D|-------------------0---|

What do you think?

guest
You may want to rate the tab now too:
select rating
Wanna post a correction for this tab? Suggest correction