Oops, an error
Loading. Please wait.

Timeless Melody Tab

304 views 1 this week
no commentswrite comment
1 2 3 4 5
please rate
add to favorites
launch autoscroll
font size
0
reset
how to read this tab
guitar tuner
Autoscroll
slow
fast
+/-
esc
set tempo
stop
Help us to improve Ultimate-Guitar.com Take our survey!
×
Difficulty
novice
Intro
|--3-3-3-3-3---0-0-0-0-0---3-3-3-3-3---0-0-0-0-0----------------------|
|--3-3-3-3-3---1-1-1-1-1---3-3-3-3-3---1-1-1-1-1----------------------|
|--0-0-0-0-0---0-0-0-0-0---0-0-0-0-0---0-0-0-0-0----------------------|
|--0-0-0-0-0---2-2-2-2-2---0-0-0-0-0---2-2-2-2-2----------------------|
|--2-2-2-2-2---3-3-3-3-3---2-2-2-2-2---3-3-3-3-3----------------------|
|--3-3-3-3-3---------------3-3-3-3-3----------------------------------|

Verse
|--3-3-3-3-3---2-2-2-2-2---------1-1-1-1-1------0-0-0-0-0-------------|
|--3-3-3-3-3---3-3-3-3-3---------1-1-1-1-1------1-1-1-1-1-------------|
|--0-0-0-0-0---2-2-2-2-2---------2-2-2-2-2------0-0-0-0-0-------------|
|--0-0-0-0-0---0-0-0-0-0---------3-3-3-3-3------2-2-2-2-2-------------|
|--2-2-2-2-2---------------------3-3-3-3-3------3-3-3-3-3-------------|
|--3-3-3-3-3---------------------1-1-1-1-1----------------------------|
    the melody always finds me    whenever the tune reminds me

|--3-3-3-3-3---2-2-2-2-2---------1-1-1-1-1------0-0-0-0-0-------------|
|--3-3-3-3-3---3-3-3-3-3---------1-1-1-1-1------1-1-1-1-1-------------|
|--0-0-0-0-0---2-2-2-2-2---------2-2-2-2-2------0-0-0-0-0-------------|
|--0-0-0-0-0---0-0-0-0-0---------3-3-3-3-3------2-2-2-2-2-------------|
|--2-2-2-2-2---------------------3-3-3-3-3------3-3-3-3-3-------------|
|--3-3-3-3-3---------------------1-1-1-1-1----------------------------|
??????????

|--3-3-3-3-3---2-2-2-2-2---------1-1-1-1-1------0-0-0-0-0-------------|
|--3-3-3-3-3---3-3-3-3-3---------1-1-1-1-1------1-1-1-1-1-------------|
|--0-0-0-0-0---2-2-2-2-2---------2-2-2-2-2------0-0-0-0-0-------------|
|--0-0-0-0-0---0-0-0-0-0---------3-3-3-3-3------2-2-2-2-2-------------|
|--2-2-2-2-2---------------------3-3-3-3-3------3-3-3-3-3-------------|
|--3-3-3-3-3---------------------1-1-1-1-1----------------------------|
    the melody chord unwinds me   the rhythm of life unties me

|--3-3-3-3-3---2-2-2-2-2---------1-1-1-1-1------0-0-0-0-0-------------|
|--3-3-3-3-3---3-3-3-3-3---------1-1-1-1-1------1-1-1-1-1-------------|
|--0-0-0-0-0---2-2-2-2-2---------2-2-2-2-2------0-0-0-0-0-------------|
|--0-0-0-0-0---0-0-0-0-0---------3-3-3-3-3------2-2-2-2-2-------------|
|--2-2-2-2-2---------------------3-3-3-3-3------3-3-3-3-3-------------|
|--3-3-3-3-3---------------------1-1-1-1-1----------------------------|
    bustling a silent   time      away                    if you

Chorus
|-0-0-0-0-0-------0-0-0-0-0---3-3-3-3-3---------0-0-0-0-0-0-0-0-0-----|
|-0-0-0-0-0-------1-1-1-1-1---3-3-3-3-3---------1-1-1-1-1-1-1-1-1-----|
|-0-0-0-0-0-------0-0-0-0-0---0-0-0-0-0---------0-0-0-0-0-0-0-0-0-----|
|-2-2-2-2-2-------2-2-2-2-2---0-0-0-0-0---------2-2-2-2-2-2-2-2-2-----|
|-2-2-2-2-2-------3-3-3-3-3---2-2-2-2-2---------3-3-3-3-3-3-3-3-3-----|
|-0-0-0-0-0-------------------3-3-3-3-3-------------------------------|
look with your mind do you know what you will find? open your mind...

Verse
|--3-3-3-3-3--2-2-2-2-2---------1-1-1-1-1------0-0-0-0-0--------------|
|--3-3-3-3-3--3-3-3-3-3---------1-1-1-1-1------1-1-1-1-1--------------|
|--0-0-0-0-0--2-2-2-2-2---------2-2-2-2-2------0-0-0-0-0--------------|
|--0-0-0-0-0--0-0-0-0-0---------3-3-3-3-3------2-2-2-2-2--------------|
|--2-2-2-2-2--------------------3-3-3-3-3------3-3-3-3-3--------------|
|--3-3-3-3-3--------------------1-1-1-1-1-----------------------------|
    even the  words they fail me oh clock it's ??? me

|--3-3-3-3-3---2-2-2-2-2---------1-1-1-1-1------0-0-0-0-0-------------|
|--3-3-3-3-3---3-3-3-3-3---------1-1-1-1-1------1-1-1-1-1-------------|
|--0-0-0-0-0---2-2-2-2-2---------2-2-2-2-2------0-0-0-0-0-------------|
|--0-0-0-0-0---0-0-0-0-0---------3-3-3-3-3------2-2-2-2-2-------------|
|--2-2-2-2-2---------------------3-3-3-3-3------3-3-3-3-3-------------|
|--3-3-3-3-3---------------------1-1-1-1-1----------------------------|
    it's only a ??? i want         to      see


|--3-3-3-3-3---2-2-2-2-2---------1-1-1-1-1------0-0-0-0-0-------------|
|--3-3-3-3-3---3-3-3-3-3---------1-1-1-1-1------1-1-1-1-1-------------|
|--0-0-0-0-0---2-2-2-2-2---------2-2-2-2-2------0-0-0-0-0-------------|
|--0-0-0-0-0---0-0-0-0-0---------3-3-3-3-3------2-2-2-2-2-------------|
|--2-2-2-2-2---------------------3-3-3-3-3------3-3-3-3-3-------------|
|--3-3-3-3-3---------------------1-1-1-1-1----------------------------|
it's only a    word believe me if only the world could see me

|--3-3-3-3-3---2-2-2-2-2---------1-1-1-1-1------0-0-0-0-0-------------|
|--3-3-3-3-3---3-3-3-3-3---------1-1-1-1-1------1-1-1-1-1-------------|
|--0-0-0-0-0---2-2-2-2-2---------2-2-2-2-2------0-0-0-0-0-------------|
|--0-0-0-0-0---0-0-0-0-0---------3-3-3-3-3------2-2-2-2-2-------------|
|--2-2-2-2-2---------------------3-3-3-3-3------3-3-3-3-3-------------|
|--3-3-3-3-3---------------------1-1-1-1-1----------------------------|
i haven't ?????????                                      If you

Chorus
|-0-0-0-0-0-------0-0-0-0-0---3-3-3-3-3---------0-0-0-0-0-0-0-0-0-----|
|-0-0-0-0-0-------1-1-1-1-1---3-3-3-3-3---------1-1-1-1-1-1-1-1-1-----|
|-0-0-0-0-0-------0-0-0-0-0---0-0-0-0-0---------0-0-0-0-0-0-0-0-0-----|
|-2-2-2-2-2-------2-2-2-2-2---0-0-0-0-0---------2-2-2-2-2-2-2-2-2-----|
|-2-2-2-2-2-------3-3-3-3-3---2-2-2-2-2---------3-3-3-3-3-3-3-3-3-----|
|-0-0-0-0-0-------------------3-3-3-3-3-------------------------------|
look with your eyes do you know what you will find? open your mind...

Solo
|--3-3-3-3-3---2-2-2-2-2---1-1-1-1-1---0-0-0-0-0----------------------|
|--3-3-3-3-3---3-3-3-3-3---1-1-1-1-1---1-1-1-1-1----------------------|
|--0-0-0-0-0---2-2-2-2-2---2-2-2-2-2---0-0-0-0-0----------------------|
|--0-0-0-0-0---0-0-0-0-0---3-3-3-3-3---2-2-2-2-2----------------------|
|--2-2-2-2-2---------------3-3-3-3-3---3-3-3-3-3----------------------|
|--3-3-3-3-3---------------1-1-1-1-1----------------------------------|
G1

|-----------------------------7---------------------------------------|
|----8h10/12---10---10---10v-----10----8------------------------------|
|---------------------------------------------------------------------|
|---------------------------------------------------------------------|
|---------------------------------------------------------------------|
|---------------------------------------------------------------------|
G2

|--3-3-3-3-3---2-2-2-2-2---1-1-1-1-1---0-0-0-0-0----------------------|
|--3-3-3-3-3---3-3-3-3-3---1-1-1-1-1---1-1-1-1-1----------------------|
|--0-0-0-0-0---2-2-2-2-2---2-2-2-2-2---0-0-0-0-0----------------------|
|--0-0-0-0-0---0-0-0-0-0---3-3-3-3-3---2-2-2-2-2----------------------|
|--2-2-2-2-2---------------3-3-3-3-3---3-3-3-3-3----------------------|
|--3-3-3-3-3---------------1-1-1-1-1----------------------------------|
G1

|-12---10v------------------------------------------------------------|
|----------12---12v---12---12---12---10---10---10---12---12---8-------|
|---------------------------------------------------------------------|
|---------------------------------------------------------------------|
|---------------------------------------------------------------------|
|---------------------------------------------------------------------|
G2

|--3-3-3-3-3---2-2-2-2-2---1-1-1-1-1---0-0-0-0-0----------------------|
|--3-3-3-3-3---3-3-3-3-3---1-1-1-1-1---1-1-1-1-1----------------------|
|--0-0-0-0-0---2-2-2-2-2---2-2-2-2-2---0-0-0-0-0----------------------|
|--0-0-0-0-0---0-0-0-0-0---3-3-3-3-3---2-2-2-2-2----------------------|
|--2-2-2-2-2---------------3-3-3-3-3---3-3-3-3-3----------------------|
|--3-3-3-3-3---------------1-1-1-1-1----------------------------------|
G1

|--------7------------------------7--10---7--10\----------------------|
|--8h10-----10--10b11--8----8h10--------------------------------------|
|---------------------------------------------------------------------|
|---------------------------------------------------------------------|
|---------------------------------------------------------------------|
|---------------------------------------------------------------------|
G2

Verse
|--3-3-3-3-3---2-2-2-2-2---------1-1-1-1-1------0-0-0-0-0-------------|
|--3-3-3-3-3---3-3-3-3-3---------1-1-1-1-1------1-1-1-1-1-------------|
|--0-0-0-0-0---2-2-2-2-2---------2-2-2-2-2------0-0-0-0-0-------------|
|--0-0-0-0-0---0-0-0-0-0---------3-3-3-3-3------2-2-2-2-2-------------|
|--2-2-2-2-2---------------------3-3-3-3-3------3-3-3-3-3-------------|
|--3-3-3-3-3---------------------1-1-1-1-1----------------------------|
    the melody always finds me    whenever the thought reminds me

|--3-3-3-3-3---2-2-2-2-2---1-1-1-1-1---0-0-0-0-0----------------------|
|--3-3-3-3-3---3-3-3-3-3---1-1-1-1-1---1-1-1-1-1----------------------|
|--0-0-0-0-0---2-2-2-2-2---2-2-2-2-2---0-0-0-0-0----------------------|
|--0-0-0-0-0---0-0-0-0-0---3-3-3-3-3---2-2-2-2-2----------------------|
|--2-2-2-2-2---------------3-3-3-3-3---3-3-3-3-3----------------------|
|--3-3-3-3-3---------------1-1-1-1-1----------------------------------|
    breaking a chain inside my head

|--3-3-3-3-3---2-2-2-2-2---------1-1-1-1-1------0-0-0-0-0-------------|
|--3-3-3-3-3---3-3-3-3-3---------1-1-1-1-1------1-1-1-1-1-------------|
|--0-0-0-0-0---2-2-2-2-2---------2-2-2-2-2------0-0-0-0-0-------------|
|--0-0-0-0-0---0-0-0-0-0---------3-3-3-3-3------2-2-2-2-2-------------|
|--2-2-2-2-2---------------------3-3-3-3-3------3-3-3-3-3-------------|
|--3-3-3-3-3---------------------1-1-1-1-1----------------------------|
    the melody chord unwinds me   the rhythm of life unties me

|--3-3-3-3-3---2-2-2-2-2---------1-1-1-1-1------0-0-0-0-0-------------|
|--3-3-3-3-3---3-3-3-3-3---------1-1-1-1-1------1-1-1-1-1-------------|
|--0-0-0-0-0---2-2-2-2-2---------2-2-2-2-2------0-0-0-0-0-------------|
|--0-0-0-0-0---0-0-0-0-0---------3-3-3-3-3------2-2-2-2-2-------------|
|--2-2-2-2-2---------------------3-3-3-3-3------3-3-3-3-3-------------|
|--3-3-3-3-3---------------------1-1-1-1-1----------------------------|
    burning a  silent   time      away                    if you

Chorus
|-0-0-0-0-0-------0-0-0-0-0---3-3-3-3-3---------0-0-0-0-0-0-0-0-0-----|
|-0-0-0-0-0-------1-1-1-1-1---3-3-3-3-3---------1-1-1-1-1-1-1-1-1-----|
|-0-0-0-0-0-------0-0-0-0-0---0-0-0-0-0---------0-0-0-0-0-0-0-0-0-----|
|-2-2-2-2-2-------2-2-2-2-2---0-0-0-0-0---------2-2-2-2-2-2-2-2-2-----|
|-2-2-2-2-2-------3-3-3-3-3---2-2-2-2-2---------3-3-3-3-3-3-3-3-3-----|
|-0-0-0-0-0-------------------3-3-3-3-3-------------------------------|
look with your mind do you know what you will find? open your mind...
For the last time hold the C chord a lot.
comments
We did not receive enough feedback on this tab! Please rate:
print report bad tab
1 2 3 4 5
I want to post or [tab]
guest
You may want to rate the tab now too:
select rating
Please do not post tabs as comments. Select "correction" instead!