Oops, an error
Loading. Please wait.

Unemployable Bass Tab

version 1
version 1

Whole song

Interactive

922 views 3 this week
no commentswrite comment
1 2 3 4 5
please rate
add to favorites
launch autoscroll
font size
0
reset
guitar tuner
Autoscroll
slow
fast
+/-
esc
set tempo
stop
Help us to improve Ultimate-Guitar.com Take our survey!
×
Difficulty
intermediate
It's not perfect tab. Bass standard tuning EADG. Enjoy! 

G---------|--------|----------------|--------------------|
D---------|--------|----------------|--------------------|
A--9--5---|---2-4--|2-22-222-000----|-2-22-222-000-------|    Intro
E------55-|-3------|-------------333|--------------333-3-|


G---------------|
D----2422-------|    verse1
A-00-----2-2220-|    x4
E---------------|

G-----------------|
D-2-2-------------|   chorus
A----02-245-55-55-|   x4
E-----------------|

G---------------|
D----2422-------|    verse2
A-00-----2-2220-|    x4
E---------------|

G-----------------|
D-2-2-------------|   chorus2
A----02-245-55-55-|   x4
E-----------------|   


G-------------|-------------------|4-----------|----------------------|4----------|--------|
D-2-2---------|-------------------|--7-4-------|----------------------|--7-4------|--------|
A----02-245-55|-555-7-7777-555-555|------7-9-5-|-55-555-7-7777-555-555|------7-9-5|5555-7--|
E-------------|------7------------|------------|---------7------------|-----------|------0-|

G---------|--------|----------------|--------------------|----------------|
D---------|--------|----------------|--------------------|----------------|
A--9--5---|---2-4--|2-22-222-000----|-2-22-222-000-------|-000------------|    
E------55-|-3------|-------------333|--------------3333--|-----333-33333-3|


G-----------------|
D-2-2-------------|   chorus3
A----02-245-55-55-|   x4
E-----------------|   

G-------------|-------------------|4-----------|----------------------|4----------|
D-2-2---------|-------------------|--7-4-------|----------------------|--7-4------|
A----02-245-55|-555-7-7777-555-555|------7-9-5-|-55-555-7-7777-555-555|------7-9-5|
E-------------|------7------------|------------|---------7------------|-----------|

G----------------------|4----------|
D----------------------|--7-4------|
A-55-555-7-7777-555-555|------7-9--|
E---------7------------|-----------|



G-11--11-|-13--13-|-11--11---|-11--11-14-16----|
D---12---|---14---|---12-----|---12--------14--|
A--------|--------|--------\9|----------------9|         outro
E--------|--------|----------|-----------------|

G-11--11---|-11--11-14-16-----|-11--11---|------|
D---12-----|---12---------14--|---12-----|---/16|
A---------9|-----------------9|--------\9|------|
E----------|------------------|----------|------|


Suggest correction
Give kudos to tab author, rate the tab!
1 2 3 4 5
comments
print report bad tab
guest
You may want to rate the tab now too:
select rating
Please do not post tabs as comments. Select "correction" instead!