Oops, an error
Loading. Please wait.

World Wide Suicide Bass Tab

version 2
version 2

Whole song

Interactive

1,408 views 1 this week
2 commentsread comments
1 2 3 4 5
x 3
add to favorites
launch autoscroll
font size
0
reset
guitar tuner
Autoscroll
slow
fast
+/-
esc
set tempo
stop
Help us to improve Ultimate-Guitar.com Take our survey!
×
Author
Difficulty
World Wide Suicide

Pearl Jam

Bass Part
                                     H        Q    Q      
G||-------|-------|-------|-------|----------------------|
D||-------|-------|-------|-------|----------------------|
A||-------|-------|-------|-------|----------------------|
E||-------|-------|-------|-------|----------------5\----|


  E  E  E  E  E  E  E  E     E  E  E  E  E  E  E  E   
--------------------------|--------------------------|
--------------------------|--------------------------|
--------------------------|--------------------------|
--5--5-----2-----3-----0--|--5--5-----2-----3-----0--|


  E  E  E  E  E  E  E  E     E  E  E  E  E  E  E  E   
--------------------------|--------------------------|
--------------------------|--------------------------|
--------------------------|--3--3--3--3-----5--5-----|
--5--5-----2-----3-----0--|--------------------------|


  E  E  E  E  E  E  E  E     E  E  E  E  E  E  E  E   
--------------------------|--------------------------|
--------------------------|--------------------------|
--------------------------|--------------------------|
--5--5-----2-----3-----0--|--5--5-----2-----3-----0--|


  E  E  E  E  E  E  E  E     E  E  E  E  E  E  E  E   
--------------------------|--------------------------|
--------------------------|--------------------------|
--------------------------|--3--3--3--3-----5--5-----|
--5--5-----2-----3-----0--|--------------------------|


  E  E  E  E  E  E  E  E     E  E  E  E  E  E  E  E   
--------------------------|--------------------------|
--------------------------|--------------------------|
--------------------------|-----7--7--7-----7--5--4--|
--5--5-----5-----5--5--5--|--------------------------|


  E  E  E  E  E  E  E  E     E  E  E  E  E  E  E  E   
--------------------------|--------------------------|
--------------------------|--------------------------|
--------------------------|-----7--7--7-----7--5--4--|
--5--5-----5-----5--5--5--|--------------------------|


  E  E  E  E  E  E  E  E     E  E  E  E  E  E  E  E   
--------------------------|--------------------------|
--------------------------|--------------------------|
--------------------------|-----5--5--5-----5--3--2--|
--3--3-----3-----3--3--3--|--------------------------|


  E  E  E  E  E  E  E  E     E  E  E  E  E  E  E  E   
--------------------------|--------------------------|
--------------------------|--------------------------|
--------------------------|-----5--5--5-----5--3--2--|
--3--3-----3-----3--3--3--|--------------------------|


  E  E  E  E  E  E  E  E     E  E  E  E  E  E  E  E   
--------------------------|--------------------------|
--------------------------|--------------------------|
--------------------------|-----7--7--7-----7--5--4--|
--5--5-----5-----5--5--5--|--------------------------|


  E  E  E  E  E  E  E  E     E  E  E  E  E  E  E  E   
--------------------------|--------------------------|
--------------------------|--------------------------|
--------------------------|-----7--7--7-----7--5--4--|
--5--5-----5-----5--5--5--|--------------------------|


  E  E  E  E  E  E  E  E     E  E  E  E  E  E  E  E   
--------------------------|--------------------------|
--------------------------|--------------------------|
--------------------------|-----5--5--5-----5--3--2--|
--3--3-----3-----3--3--3--|--------------------------|


  E  E  E  E  E  E  E  E     E  E  E  E  E  E  E  E   
--------------------------|--------------------------|
--------------------------|--------------------------|
--------------------------|-----5--5--5-----5--3--2--|
--3--3-----3-----3--3--3--|--------------------------|


  E  E  E  E  E  E  E  E     E  E  E  E  E  E  E  E   
--------------------------|--------------------------|
--------------------------|--------------------------|
--------------------------|--------------------------|
--5--5-----2-----3-----0--|--5--5-----2-----3-----0--|


  E  E  E  E  E  E  E  E     E  E  E  E  E  E  E  E   
--------------------------|--------------------------|
--------------------------|--------------------------|
--------------------------|--3--3--3--3-----5--5-----|
--5--5-----2-----3-----0--|--------------------------|


  E  E  E  E  E  E  E  E     E  E  E  E  E  E  E  E   
--------------------------|--------------------------|
--------------------------|--------------------------|
--------------------------|--------------------------|
--5--5-----2-----3-----0--|--5--5-----2-----3-----0--|


  E  E  E  E  E  E  E  E     E  E  E  E  E  E  E  E   
--------------------------|--------------------------|
--------------------------|--------------------------|
--------------------------|--3--3--3--3-----5--5-----|
--5--5-----2-----3-----0--|--------------------------|


  E  E  E  E  E  E  E  E     E  E  E  E  E  E  E  E   
--------------------------|--------------------------|
--------------------------|--------------------------|
-----------3--------------|-----------3--------------|
--5--5-----------2--2--3--|--5--5-----------2--2--3--|


  E  E  E  E  E  E  E  E     E  E  E  E  E  E  E  E   
--------------------------|--------------------------|
--------------------------|--------------------------|
-----------3--------------|--5--5--5--5--5--3--2--0--|
--5--5-----------2--2--3--|--------------------------|


  E  E  E  E  E  E  E  E     E  E  E  E  E  E  E  E   
--------------------------|--------------------------|
--------------------------|--------------------------|
-----------3--------------|-----------3--------------|
--5--5-----------2--2--3--|--5--5-----------2--2--3--|


  E  E  E  E  E  E  E  E     E  E  E  E  E  E  E  E   
--------------------------|--------------------------|
--------------------------|--0--0--0--0--0--0--0--0--|
-----------3--------------|--------------------------|
--5--5-----------2--2--3--|--------------------------|


  E  E  E  E  E  E  E  E     E  E  E  E  E  E  E  E   
--------------------------|--------------------------|
--0--0--0--0--0--0--0--0--|--------------------------|
--------------------------|--------------------------|
--------------------------|--5--5-----5-----5--5--5--|


  E  E  E  E  E  E  E  E     E  E  E  E  E  E  E  E   
--------------------------|--------------------------|
--------------------------|--------------------------|
-----7--7--7-----7--5--4--|--------------------------|
--------------------------|--5--5-----5-----5--5--5--|


  E  E  E  E  E  E  E  E     E  E  E  E  E  E  E  E   
--------------------------|--------------------------|
--------------------------|--------------------------|
-----7--7--7-----7--5--4--|--------------------------|
--------------------------|--3--3-----3-----3--3--3--|


  E  E  E  E  E  E  E  E     E  E  E  E  E  E  E  E   
--------------------------|--------------------------|
--------------------------|--------------------------|
-----5--5--5-----5--3--2--|--------------------------|
--------------------------|--3--3-----3-----3--3--3--|


  E  E  E  E  E  E  E  E     E  E  E  E  E  E  E  E   
--------------------------|--------------------------|
--------------------------|--------------------------|
-----5--5--5-----5--3--2--|--------------------------|
--------------------------|--5--5-----5-----5--5--5--|


  E  E  E  E  E  E  E  E     E  E  E  E  E  E  E  E   
--------------------------|--------------------------|
--------------------------|--------------------------|
-----7--7--7-----7--5--4--|--------------------------|
--------------------------|--5--5-----5-----5--5--5--|


  E  E  E  E  E  E  E  E     E  E  E  E  E  E  E  E   
--------------------------|--------------------------|
--------------------------|--------------------------|
-----7--7--7-----7--5--4--|--------------------------|
--------------------------|--3--3-----3-----3--3--3--|


  E  E  E  E  E  E  E  E     E  E  E  E  E  E  E  E   
--------------------------|--------------------------|
--------------------------|--------------------------|
-----5--5--5-----5--3--2--|--------------------------|
--------------------------|--3--3-----3-----3--3--3--|


  E  E  E  E  E  E  E  E     E  E  E  E  E  E  E  E   
--------------------------|--------------------------|
--------------------------|--------------------------|
-----5--5--5-----5--3--2--|--------------------------|
--------------------------|--5--5-----2-----3-----0--|


  E  E  E  E  E  E  E  E     E  E  E  E  E  E  E  E   
--------------------------|--------------------------|
--------------------------|--------------------------|
--------------------------|--------------------------|
--5--5-----2-----3-----0--|--5--5-----2-----3-----0--|


  E  E  E  E  E  E  E  E     E  E  E  E  E  E  E  E   
--------------------------|--------------------------|
--------------------------|--------------------------|
--3--3--3--3-----5--5-----|--------------------------|
--------------------------|--5--5-----2-----3-----0--|


  E  E  E  E  E  E  E  E     E  E  E  E  E  E  E  E   
--------------------------|--------------------------|
--------------------------|--------------------------|
--------------------------|--------------------------|
--5--5-----2-----3-----0--|--5--5-----2-----3-----0--|


  E  E  E  E  E  E  E  E     E  E  E  E  E  E  E  E   
--------------------------|--------------------------|
--------------------------|--------------------------|
--3--3--3--3-----5--5-----|-----------3--------------|
--------------------------|--5--5-----------2--2--3--|


  E  E  E  E  E  E  E  E     E  E  E  E  E  E  E  E   
--------------------------|--------------------------|
--------------------------|--------------------------|
-----------3--------------|-----------3--------------|
--5--5-----------2--2--3--|--5--5-----------2--2--3--|


  E  E  E  E  E  E  E  E     E  E  E  E  E  E  E  E   
--------------------------|--------------------------|
--------------------------|--------------------------|
--5--5--5--5--5--3--2--0--|-----------3--------------|
--------------------------|--5--5-----------2--2--3--|


  E  E  E  E  E  E  E  E     E  E  E  E  E  E  E  E   
--------------------------|--------------------------|
--------------------------|--------------------------|
-----------3--------------|-----------3--------------|
--5--5-----------2--2--3--|--5--5-----------2--2--3--|


  E  E  E  E  E  E  E  E     E  E  E  E  E  E  E  E   
--------------------------|--------------------------|
--0--0--0--0--0--0--0--0--|--0--0--0--0--0--0--0--0--|
--------------------------|--------------------------|
--------------------------|--------------------------|


  E  E  E  E  E  E  E  E     E  E  E  E  E  E  E  E   
--------------------------|--------------------------|
--------------------------|--------------------------|
--------------------------|-----7--7--7--7--7--7--7--|
--7--7-----7--7--7-----7--|--------------------------|


  E  E  E  E  E  E  E  E     E  E  E  E  E  E  E  E   
--------------------------|--------------------------|
--------------------------|--------------------------|
--------------------------|-----7--7--7--7--7--7--7--|
--7--7-----7--7--7-----7--|--------------------------|


  E  E  E  E  E  E  E  E     E  E  E  E  E  E  E  E   
--------------------------|--------------------------|
--------------------------|--------------------------|
--------------------------|-----7--7--7--7--7--5--4--|
--5--5-----5-----5-----5--|--------------------------|


  E  E  E  E  E  E  E  E     E  E  E  E  E  E  E  E   
--------------------------|--------------------------|
--------------------------|--------------------------|
--------------------------|-----7--7--7--7--7--5--4--|
--5--5-----5--5--5-----5--|--------------------------|


  E  E  E  E  E  E  E  E     E  E  E  E  E  E  E  E   
--------------------------|--------------------------|
--------------------------|--------------------------|
--------------------------|-----7--7--7--7--7--7--7--|
--7--7-----7--7--7-----7--|--------------------------|


  E  E  E  E  E  E  E  E     E  E  E  E  E  E  E  E   
--------------------------|--------------------------|
--------------------------|--------------------------|
--------------------------|-----7--7--7--7--7--7--7--|
--7--7-----7--7--7-----7--|--------------------------|


  E  E  E  E  E  E   E   E     E  E  E  E  E  E   E   E   
----------------------------|----------------------------|
----------------------------|----------------------------|
----------------------------|----------------------------|
--7--7--7--9--9--9--10--10--|--7--7--7--9--9--9--10--10--|


  E  E  E  E  E  E   E   E       E   E   E   E   E   E   E   E   
----------------------------|-----------------------------------|
----------------------------|-----------------------------------|
----------------------------|--/14--14--14--14--14--14--14--14--|
--7--7--7--9--9--9--10--10--|-----------------------------------|


  E  E  E  E  E  E  E  E     E  E  E  E  E  E  E  E   
--------------------------|--------------------------|
--------------------------|--------------------------|
--------------------------|--------------------------|
--5--5-----2-----3-----0--|--5--5-----2-----3-----0--|


  E  E  E  E  E  E  E  E     E  E  E  E  E  E  E  E   
--------------------------|--------------------------|
--------------------------|--------------------------|
--------------------------|--3--3--3--3-----5--5-----|
--5--5-----2-----3-----0--|--------------------------|


  E  E  E  E  E  E  E  E     E  E  E  E  E  E  E  E   
--------------------------|--------------------------|
--------------------------|--------------------------|
--------------------------|--------------------------|
--5--5-----2-----3-----0--|--5--5-----2-----3-----0--|


  E  E  E  E  E  E  E  E     E  E  E  E  E  E  E  E   
--------------------------|--------------------------|
--------------------------|--------------------------|
--------------------------|--3--3--3--3-----5--5-----|
--5--5-----2-----3-----0--|--------------------------|


  E  E  E  E  E  E  E  E     E  E  E  E  E  E  E  E   
--------------------------|--------------------------|
--------------------------|--------------------------|
-----------3--------------|-----------3--------------|
--5--5-----------2--2--3--|--5--5-----------2--2--3--|


  E  E  E  E  E  E  E  E     E  E  E  E  E  E  E  E   
--------------------------|--------------------------|
--------------------------|--------------------------|
-----------3--------------|--5--5--5--5--5--3--2--0--|
--5--5-----------2--2--3--|--------------------------|


  E  E  E  E  E  E  E  E     E  E  E  E  E  E  E  E   
--------------------------|--------------------------|
--------------------------|--------------------------|
-----------3--------------|-----------3--------------|
--5--5-----------2--2--3--|--5--5-----------2--2--3--|


  E  E  E  E  E  E  E  E     E  E  E  E  E  E  E  E   
--------------------------|--------------------------|
--------------------------|--------------------------|
-----------3--------------|--5--5--5--5--5--3--2--0--|
--5--5-----------2--2--3--|--------------------------|


  E  E  E  E  E  E  E  E     E  E  E  E  E  E  E  E   
--------------------------|--------------------------|
--------------------------|--------------------------|
-----------3--------------|-----------3--------------|
--5--5-----------2--2--3--|--5--5-----------2--2--3--|


  E  E  E  E  E  E  E  E     E  E  E  E  E  E  E  E   
--------------------------|--------------------------|
--------------------------|--------------------------|
-----------3--------------|--5--5--5--5--5--3--2--0--|
--5--5-----------2--2--3--|--------------------------|


  E  E  E  E  E  E  E  E     E  E  E  E  E  E  E  E   
--------------------------|--------------------------|
--------------------------|--------------------------|
-----------3--------------|-----------3--------------|
--5--5-----------2--2--3--|--5--5-----------2--2--3--|


  E  E  E  E  E  E  E  E      E   E   E   E   E   E   E   E   
--------------------------|----------------------------------|
--------------------------|----------------------------------|
-----------3--------------|----------------------------------|
--5--5-----------2--2--3--|--10--10--10--10--10--10--10--10--|


   E   E  E   E   E   E  E   E      E   E  E   E   E   E  E   E   
--------------------------------|--------------------------------|
--------------------------------|--------------------------------|
----------9------10--10--9------|----------9------10--10--9------|
--10--10-----10-------------10--|--10--10-----10-------------10--|


   E   E   E   E   E   E   E   E      H.           Q       H.           Q     
----------------------------------|---------------------|--------------------|
----------------------------------|---------------------|--------------------|
----------------------------------|---------------------|--------------------|
--10--10--10--10--10--10--10--10--|---L------------5----|--L-----------------|


-------||
-------||
-------||
-------||




Duration Legend
---------------
W - whole
H - half
Q - quarter
E - 8th
S - 16th
T - 32nd
X - 64th
. - note dotted
|-n-|  - n-tuplets


Tablature Legend
----------------
L - tied note
x - dead note
g - grace note
(n) - ghost note
> - accentuded note
NH - natural harmonic
AH - artificial harmonic
TH - tapped harmonic
SH - semi harmonic
PH - pitch harmonic
h - hammer on
p - pull off
b - bend
br - bendRelease
pb - preBend
pbr - preBendRelease
brb - bendReleaseBend
\n/ - tremolo bar dip
\n - tremolo bar dive
-/n - tremolo bar Release up
/n\ - tremolo bar inverted dip
/n - tremolo bar return
-\n - tremolo bar Release down
S - shift slide
s - legato slide
/ -  slide into from below or out of upwards
\ -  slide into from above or out of downwards
~ - vibrato
W - wide vibrato
tr - trill
TP - tremolo picking
T - tapping
S - slap
P - pop
< - fade in
^ - brush up
v - brush down
Suggest correction
Give kudos to tab author, rate the tab!
1 2 3 4 5
comments
print report bad tab
2 comments total.
0 reply
RobG&D 76 Dec 18, 2007 05:16 AM

looks great man

0 reply
InsomniaJunkie 10 Jun 24, 2009 06:37 PM

Yeah!!! nice job extracting it from guitar pro and pasting it on here!

guest
You may want to rate the tab now too:
select rating
Wanna post a correction for this tab? Suggest correction