Oops, an error
Loading. Please wait.

World Wide Suicide Tab

version 2
version 2

Whole song

Interactive

1,280 views 3 this week
no commentswrite comment
1 2 3 4 5
accurate
x 1
add to favorites
launch autoscroll
font size
0
reset
how to read this tab
guitar tuner
Tab Pro tools
  • play this tab
  • loop segment
  • change instrument
  • show fretboard
  • metronome
Autoscroll
slow
fast
+/-
esc
set tempo
stop
Contributor
Pearl Jam
World Wide Suicide
(1st single off self-titled 8th studio album {with the avocado})
by Eddie Vedder

This tab is pretty much right except for McCready solo-ing at the end in the last two 
it was a hard one to pick but if you figure it out....great! Enjoy!!

drums start with feedback after four bars and then
riff 1
e|--------------------------------------------------------------------------------|
B|--------------------------------------------------------------------------------|
G|--------------------------------------------------------5-5-5-5-5-7-7-----------|
D|-----7-7---4-5---7-7----4-5---7-7----4-5-------5-5-5-5-5-7-7--------------------|
A|-----7-7---4-5---7-7----4-5---7-7----4-5-------3-3-3-3-3-5-5--------------------|
E|--95-5---2-3---5-5----2-3---5-5----2-3------------------------------------------|

  lead guitar over it
e|--9p5-9p5-9p5-9p5-9p5-9p5--|

 A                                     E
I felt the earth on a Monday
A                                      E
It moved beneath my feet
G
In the form of the morning paper
G
Laid out for me to see

Saw his face in the corner picture
I recognized the name
Could not stop staring at the
Face I'd never see again

Prechorus
riff 1
e|---------------------------------------------------------|
B|---------------------------------------------------------|
G|---------------------------------------------------------|
D|--7-7---4-5---7-7----4-5---7-7----4-5--------------------|
A|--7-7---4-5---7-7----4-5---7-7----4-5--------------------|
E|--5-5---2-3---5-5----2-3---5-5----2-3--------------------|
             It's a shame to awake in a world of pain what does it mean
             It's the same everyday in a hell manmade what can be saved
e|----------------------------|
b|----------------------------|
g|---5-5-5-5-5-7-7------------|
d|---5-5-5-5-5-7-7------------|
a|---3-3-3-3-3-5-5------------|
E|----------------------------|
         when a war has taken over
         and who will be left to hold her?

 riff 2 over chorus
e|---------------------------------------------------------------|
b|---------------------------------------------------------------|
g|------------5--------------------5-------------------------5---|
d|---7-7----5---5-5-5----7-7--5---5-5-5-------7-7---5---5-5-5----|
a|---7-7----3---5-5-5----7-7--3---5-5-5-------7-7---3---5-5-5----|
E|---5-5---------3-3-3----5-5------3-3-3-------5-5--------3-3-3--|
                  The whole world!                      World over!


e|--------------------------------------|
b|--------------------------------------|
g|---7-7-7-7-7-7-7----------------------|
d|---7-7-7-7-7-7-7----------------------|                   x2
a|---5-5-5-5-5-5-5----------------------|
E|--------------------------------------|
Yeah it's World Wide Suicide !

A                                     E
Medals on a wooden mantle
A                                    E
Next to a handsome face
G
That the President took for granted
G
Writing cheques that others pay

And in all the madness
Thoughts become numb and naive
So much to talk about
Yet nothing for us to say

Main riff
It's the same every day
And the wave won't break
Tell you to pray
Laying claim to the take that our soldiers save
Does not equate, and the truth's already out there

Chorus (Main riff)
The whole world!
World over!
Yeah it's world wide suicide!! x2

        B                                                       A
e|----------------------------------------------------------|
b|------------4-5-2-0-2-4----4-5-2-0-2-2-0-0---2-0-0---0-2--|
g|----------------------------------------------------------|

Repeats over bridge

B
Looking in the eyes of the fallen
You got to know there's
Another
Another
Another
Another
Another
WAAAAAAAY!

Bass doing riff 1
Guitar doing a fast mute

It's a shame to awake in a world of pain
What does it mean when a war has taken over
It's the same everyday and the wave won't break
Tell you to pray, while the devils on their shoulder

Chorus x4
Riff 2
The whole world
World over
It's World Wide Suiiiiiiiiiiiiiiicide x4

e|--17-17-20-15-17-17-20-15---17b------12p10-------------------------|
B|------------------------------------------------------------11-----|
G|-------------------------------------------------------------------|
D|-------------------------------------------------------------------|
A|-------------------------------------------------------------------|
E|-------------------------------------------------------------------|

 Hard to hear the rest of the solo underneath the last two chorus'.
Thats the basic idea, improv the rest maybe.
comments
We did not receive enough feedback on this tab! Please rate:
print report bad tab
1 2 3 4 5
I want to post or [tab]
guest
You may want to rate the tab now too:
select rating
Please do not post tabs as comments. Select "correction" instead!