Oops, an error
Loading. Please wait.

World Wide Suicide Tab

version 3
version 3

Whole song

Interactive

3,717 views 1 this week
no commentswrite comment
1 2 3 4 5
x 3
add to favorites
launch autoscroll
font size
0
reset
how to read this tab
guitar tuner
Autoscroll
slow
fast
+/-
esc
set tempo
stop
Help us to improve Ultimate-Guitar.com Take our survey!
×
Author
Difficulty
novice
----------------------------------------------------------------------------
                        World wide suicide - Pearl jam
----------------------------------------------------------------------------
Tabbed by:Faith_dead
Email:

Tuning:Normal tuning

This is my first tab that i've ever placed on the internet, so it's pretty new for me. I 
the intro was something like this:
tap the 5th fret with your left hand and let the open snare sound, than hammer on with 
right hand(maybe my english is bad but i hope you understand it), listen to the song for 
tempo, cause it didn't fit right here.

Intro Gtr 1:

keep repeating this part(repeat 8 times)

e|--(t5)p0h9-(t5)p0h9-(t5)p0h9-(t5)p0h9------------------------------------|
B|-------------------------------------------------------------------------|
G|-------------------------------------------------------------------------|
D|-------------------------------------------------------------------------|
A|-------------------------------------------------------------------------|
E|-------------------------------------------------------------------------|
   (p: pull off with pick)
Gtr2
e|-------------------------------------------------------------------------|
B|-------------------------------------------------------------------------|
G|---------------------------------------------------------5-5-5-5-5/7-7---|
D|--7-7-x--4-x-5-x---7-7-7-x--4-x-5-x---7-7-7-x--4-x-5-x---5-5-5-5-5/7-7---|
A|--7-7-x--4-x-5-x---7-7-7-x--4-x-5-x---7-7-7-x--4-x-5-x---3-3-3-3-3/5-5---|
E|--5-5-x--2-x-3-x---5-5-5-x--2-x-3-x---5-5-5-x--2-x-3-x-------------------|

Verse:

 I felt the aerth on monday
      A
 It moved beneath my feet
      A
 In the form of a morning paper
      G
 Laid out for me to see
      G
 (g= 320033)

Pre-chorus:

e|-------------------------------------------------------------------------|
B|-------------------------------------------------------------------------|
G|---------------------------------------------------------5-5-5-5-5/7-7---|
D|--7-7-x--4-x-5-x---7-7-7-x--4-x-5-x---7-7-7-x--4-x-5-x---5-5-5-5-5/7-7---|
A|--7-7-x--4-x-5-x---7-7-7-x--4-x-5-x---7-7-7-x--4-x-5-x---3-3-3-3-3/5-5---|
E|--5-5-x--2-x-3-x---5-5-5-x--2-x-3-x---5-5-5-x--2-x-3-x-------------------|

Chorus:

e|-------------------------------------------------------------------------|
B|-------------------------------------------------------------------------|
G|---------5-x-----------------5-x-----------------5-x----------7-7-7-7-7--|
D|--7-7-x--5-x--4-4-5---7-7-x--5-x--4-4-5---7-7-x--5-x--4-4-5---7-7-7-7-7--|
A|--7-7-x--3-x--4-4-5---7-7-x--3-x--4-4-5---7-7-x--3-x--4-4-5---5-5-5-5-5--|
E|--5-5-x-------2-2-3---5-5-x-------2-2-3---5-5-x-------2-2-3--------------|

e|-------------------------------------------------------------------------|
B|-------------------------------------------------------------------------|
G|--5--------------5-x-----------------5-x-----------------5-x-------------|
D|--5-9-7---7-7-x--5-x--4-4-5---7-7-x--5-x--4-4-5---7-7-x--5-x--4-4-5------|
A|--3-9-7---7-7-x--3-x--4-4-5---7-7-x--3-x--4-4-5---7-7-x--3-x--4-4-5------|
E|----7-5---5-5---------2-2-3---5-5-x-------2-2-3---5-5-x-------2-2-3------|

e|-------------------------------------------------------------------------|
B|-------------------------------------------------------------------------|
G|--7-7-7-7-7-7-7-7-7-7-7-7-7-7-7-7----------------------------------------|
D|--7-7-7-7-7-7-7-7-7-7-7-7-7-7-7-7----------------------------------------|
A|--5-5-5-5-5-5-5-5-5-5-5-5-5-5-5-5----------------------------------------|
E|-------------------------------------------------------------------------|

Verse(repeat 1st verse)
pre-chorus(" " ")
chorus(" " ")

Bridge

e|-------------------------------------------------------------------------|
B|-------------------------------------------------------------------------|
G|--4---4-4-4---2---2-2-2---4---4-4-4---4(r)-------------------------------|
D|--4---4-4-4---2---2-2-2---4---4-4-4---4(r)-------------------------------|
A|--2---2-2-2---0---0-0-0---2---2-2-2---2(r)-------------------------------|
E|-------------------------------------------------------------------------|
                                          (r)=keep repeating
Pre-chorus 2

e|-------------------------------------------------------------------------|
B|-------------------------------------------------------------------------|
G|-------------------------------------------------------------------------|
D|--7-7-7-7-7-7-7-7-7-7-7-7-7-7-7-7-7-7-7-7-7-7-7-7-7-7-7-7-7-7-7-7-7-7-7--|
A|-------------------------------------------------------------------------|
E|-------------------------------------------------------------------------|
  Listen to song for tempo

chorus(4 times)
solo(didn't figured out yet)

end

e|-----------|
B|-----------|
G|--5--------|
D|--5--------|
A|--0--------|
E|-----------|
Suggest correction
Give kudos to tab author, rate the tab!
1 2 3 4 5
comments
print report bad tab
guest
You may want to rate the tab now too:
select rating
Wanna post a correction for this tab? Suggest correction