Oops, an error
Loading. Please wait.

Worldwide Suicide Tab

1,361 views 1 this week
1 commentread comment
1 2 3 4 5
1 last vote to show rating
add to favorites
launch autoscroll
font size
0
reset
how to read this tab
guitar tuner
Autoscroll
slow
fast
+/-
esc
set tempo
stop
Help us to improve Ultimate-Guitar.com Take our survey!
×
Difficulty
novice
 Pearl Jam - World Wide Suicide

Album: Pearl Jam
Instrument: Guitar
Tuning: EBGDAe (Standard)

   

Intro:this is what Stone Plays
 
A5    F#5 G5 A5    F#5 G5 A5    F#5 G5 C5      D5
e||-----------------------------------------------------------|
B||-----------------------------------------------------------|
G||-----------------------------------------5-5-5-5-5-7-7-7---|
D||--7-7-x--4-5---7-7-x--4-5---7-7-x--4-5---5-5-5-5-5-7-7-7---|
A||--7-7-x--4-5---7-7-x--4-5---7-7-x--4-5---3-3-3-3-3-5-5-5---|
E||9-5---x--2-3---5-5-x--2-3---5-5-x--2-3---------------------|


Verse:Chord Used
  
     These are the Chords That Edsdsy Play(Let Ring)
A Major Add 11th Add 9th         G
  e ||---0-----------------------3-------------------------------|
  B ||---0-----------------------0-------------------------------|
  G ||---7-----------------------0-------------------------------|  
  D ||---2-----------------------0-------------------------------|
  A ||---4-----------------------2-------------------------------|
  E ||---5-----------------------3-------------------------------|


    Mike Plays These
 
  e ||---5-----------------------3-------------------------------|
  B ||---5-----------------------3-------------------------------|
  G ||---6-----------------------4-------------------------------|  
  D ||---7-----------------------5-------------------------------|
  A ||---7-----------------------5-------------------------------|
  E ||---5-----------------------3-------------------------------|


     (I could't Figger Out What Stone Plays)

    A                                  
    I felt the earth on a Monday
    G
    It moved beneath my feet
    A
    In the form of the morning paper
    G 
    Laid out for me to see
 
    Chorus
         A5   C5 F#5 G5
  e ||-----------------------------------------------------------|
  B ||-----------------------------------------------------------|
  G ||---------5-------------------7-7-7-7-6-6-5-----------------|  
  D ||---7-7-x-5-4-4-5----x3-------7-7-7-7-7-7-7-----------------|
  A ||---7-7-x-3-4-4-5-------------5-5-5-5-5-5-5-----------------|
  E ||---5-5-x---2-2-3-------------------------------------------|
      Solo

     e||-------------0-----------------0-----0--------0-----|
     B||-------------0-----------------0-----0--------0-----|
     G||--6h8--8/9-6-4/6/8---6h8-8/9-6-4-6-6-4-4---6--4-4---|
     D||----------------------------------------------------|
     A||----------------------------------------------------|
     E||----------------------------------------------------|
  Bridge
          Look in the ey...     Waaaaaaaaaaaaaaayyyyyyyyy
    e ||-----------------------------------------------------------|
    B ||-----------------------------------------------------------|
    G ||-----------------------------------------------------------|  
    D ||---9-9-9-------------------7-------------------------------|
    A ||---9-9-9---.-..-.----------7-------------------------------|
    E ||---7-7-7-------------------5-------------------------------|

      0utro(Mike)
     e ||---17-17-20-15-17-17-20-15---17b------12p10----------------|
     B ||---------------------------------------------------11------|
     G ||-----------------------------------------------------------|  
     D ||-----------------------------------------------------------|
     A ||-----------------------------------------------------------|
     E ||-----------------------------------------------------------|

     End On

       e ||---------------------------|
       B ||---------------------------|
       G ||---5-----------------------|  
       D ||---5-----------------------|
       A ||---0-----------------------|
       E ||------------- -------------|




Suggest correction
Give kudos to tab author, rate the tab!
1 2 3 4 5
comments
print report bad tab
1 comment total.
0 reply
mandalore_15 41 Apr 18, 2011 05:35 AM

Not a very accurate tab... also includes some impossible chords! A chord stretch from 2-7 is ridiculous and clearly not what Pearl Jam would play with their low-slung guitars.

guest
You may want to rate the tab now too:
select rating
Wanna post a correction for this tab? Suggest correction