Oops, an error
Loading. Please wait.

Yellow Ledbetter Live solo tab

118 views 6 this week
no commentswrite comment
1 2 3 4 5
3 more votes to show rating
add to favorites
×
Save as Personal and add changes to this tab that will be seen only by you. Learn more ›
×
You can save this tab as Personal to edit and correct it or add notes. All changes will be seen only by you. Learn more »
launch autoscroll
font size
0
reset
how to read this tab
guitar tuner
edit
Autoscroll
slow
fast
+/-
esc
set tempo
stop
This is the Tab to Mike McCready's Solo in Yellow Ledbetter Live @ Milan 2006

(play bends or just slide up from 12 to 14)
E|-------------------------------------------------------------------------------------------|
B|--12b14r12--12b14r12--12b14r12~----------10p9--10p9--10p9--10p9----------------------------|
G|----------------------------------------------------------------9--9-----------------------|
D|-------------------------------------------------------------------------------------------|
A|-------------------------------------------------------------------------------------------|
E|-------------------------------------------------------------------------------------------|


                     (hold the bend, until next bend)
E|--------------------------------------------------------------------------|
B|------------------12------------------------------------------------------|
G|--------9--11b13------11b13-----------11b13--11b13r11p9-------------------|
D|--9h11---------------------------------------------------11---------------|
A|-------------------------------------------------------------9/11--9--7~--|
E|--------------------------------------------------------------------------|


(Play THIS PART and
E|-------------------------------------------------|
B|-------------------------------------------------|
G|--------------9--9--------------9--9------9h11---|
D|--------9h11--------------9h11--------11---------|
A|--9/11-------------------------------------------|
E|-------------------------------------------------|

THIS PART fast together)
E|-------------------------------------9h11--11--------12--12b14-----|
B|--------9--9--------9--12--12--------------------------------------|
G|----11-------------------------------------------------------------|
D|-------------------------------------------------------------------|
A|-------------------------------------------------------------------|
E|-------------------------------------------------------------------|

(harmonic)     (here he plays kinda fast with a wah pedal)
E|--12*--------9h12p9------9------------------------------------------12------|
B|--------------------12---------12b14--12b14r12p9------9-------------12------|
G|--------------------------------------------------11--------11b13-----------|
D|----------------------------------------------------------------------------|
A|----------------------------------------------------------------------------|
E|----------------------------------------------------------------------------|


************************************

| p  Pull-off
| b  Bend
| ~  Vibrato
| r  Release
| h  Hammer-on
| /  Slide up
| *  Harmonic

************************************

            
            
Suggest correction
Creating personal tab
Creating personal tab
You can edit any tab online and save it as your Personal.

You can edit, replace or remove any tab part or add personal notes – all changes will be seen only by you.

Personal tabs can be accessed anytime from any device, even offline.
Learn more »
Give kudos to tab author, rate the tab!
1 2 3 4 5
comments
print report bad tab
guest
You may want to rate the tab now too:
select rating
Wanna post a correction for this tab? Suggest correction