Oops, an error
Loading. Please wait.

Nubes Negras tab

74 views 1 this week
no commentswrite comment
1 2 3 4 5
3 more votes to show rating
add to favorites
×
Save as Personal and add changes to this tab that will be seen only by you. Learn more ›
×
You can save this tab as Personal to edit and correct it or add notes. All changes will be seen only by you. Learn more »
launch autoscroll
font size
0
reset
how to read this tab
guitar tuner
edit
Autoscroll
slow
fast
+/-
esc
set tempo
stop
EBGDAE (Capo 2nd)
Acordes y tablatura relativos al capo. Tonalidad original: A

Intro

      G             C             D7/C                  G
|--3p2h3-----|--0-----0-----|--------------|--------------------------|
|---------0--|-----3--------|--3-----3-----|-------0h3----------------|
|------------|-----------0--|-----5--------|--------------0--------0--|
|------------|--------------|-----------4--|--4s2---------------0-----|
|------------|--3-----------|--3-----------|--------------------------|
|--3---------|--------------|--------------|-------3---------2--------|

      Em            A7           D7           G
|--3p2h3-----|--0-----0-----|-----------|-----------|
|---------0--|-----3--------|--5p4h5p0--|-----1--0--|
|------------|-----------0--|--0--------|--2--0-----|
|------------|--------------|-----------|-----------|
|------------|--0-----------|-----------|-----------|
|--0---------|--------------|-----------|--------3--|


F#m7sus4    B7     Em
Nu - - - - - bes negras
G7           Cmaj7
llueve otra vez
        D7      G
y aquí adentro los dos

|--------|--------|--------|
|-----0--|-----0--|-----0--|
|--------|--------|--------|
|--1-----|--2-----|--4-----|
|--2-----|--4-----|--6-----|
|--------|--------|--------|

F#m7b5    B7       Em
Tu         voz me despierta
G7        Cmaj7
dulce de sueños,
  B7
pereza y amor

___________________________________________.1
                                      Em7
|-----------|-----------|-----------|--0--|
|-----0-----|-----0-----|-----0-----|--0--|
|-----------|-----------|-----------|--0--|
|--7-----7--|--4-----4--|--2-----2--|--0--|
|--9--------|--5--------|--4--------|--2--|
|-----------|-----------|-----------|--0--|

(repite)
___________________________________________.2
                                      Em7
|-----------|-----------|-----------|--0--|
|-----0-----|-----0-----|-----0-----|--0--|
|-----------|-----------|-----------|--0--|
|--6-----6--|--4-----4--|--2-----2--|--0--|
|--7--------|--5--------|--4--------|--2--|
|-----------|-----------|-----------|--0--|

Nota
F#m7sus4 es intercambiable con F#m7b5, depende del matiz que se quiera dar

 F#m7sus4       F#m7b5
 |--0--|e     x|-----|e
 |--0--|B      |--1--|B
 |--2--|G      |--2--|G
 |--2--|D      |--2--|D
x|-----|A     x|-----|A
 |--2--|E      |--2--|E

            
            
Suggest correction
Creating personal tab
Creating personal tab
You can edit any tab online and save it as your Personal.

You can edit, replace or remove any tab part or add personal notes – all changes will be seen only by you.

Personal tabs can be accessed anytime from any device, even offline.
Learn more »
Give kudos to tab author, rate the tab!
1 2 3 4 5
comments
print report bad tab
guest
Wanna post a correction for this tab? Suggest correction