Oops, an error
Loading. Please wait.

Tiempo Sin Respuesta tab

111 views 1 this week
no commentswrite comment
1 2 3 4 5
3 more votes to show rating
add to favorites
×
Save as Personal and add changes to this tab that will be seen only by you. Learn more ›
×
You can save this tab as Personal to edit and correct it or add notes. All changes will be seen only by you. Learn more »
launch autoscroll
font size
0
reset
how to read this tab
guitar tuner
edit
Autoscroll
slow
fast
+/-
esc
set tempo
stop
Afinacion de 6ª a 1ª: D-A-D-G-B-D

INTRO:

d.-----------0-----------------------------------------------------
B.------0---------0--------0-------------10-------10------------8--
G.---------0--------*12*-----0-----0--9--------12----12--9----0----
D.-----------------------------------------------------------------
A.-----------------------------------------------------------------
D.-12--------12------12---------11-------11----------11----10------

d.--------10----------------------0--*12*|
B.------------8------8-------------------|
G.---------------0--------------0----*12*|
D.---------------------------0-------*12*|
A.---------------------------------------|
D.--------10---------10s5--5-------------|

Donde vean esto *12* deben tocar con armonicos.

VERSO:

     El verano se fue y el calor pasó
d.-----------0-----------0---------0-----------------|
B.-----0-----------0-----------0---------------------|
G.--------0-----------0----------0-------------------|
D.----------------------------------------0----0-----|
A.--5-----------3-----------2----------0-------------|
D.-------------------------------------------0-------|

       De oro el otoño se coronó
d.-----------0-----------0---------0-----------------|
B.-----0-----------0-----------0---------------------|
G.--------0-----------0----------0-------------------|
D.----------------------------------------0----0-----|
A.--5-----------3-----------2----------0-------------|
D.-------------------------------------------0-------|


         Oí  un  murmullo y miré hacia atrás
d.-----------0-------5-------------0-----------5-----|
B.-----0---------------0-------0-------------0-------|
G.--------0---------0------------0-------------------|
D.---------------------------------------------------|
A.--7-----------5-----------7-------------5----------|
D.---------------------------------------------------|

      Pero el tiempo se niega a contestar
d.------------0-------------7--- ----5---------------|
B.---------0-------------0---------0-----------------|
G.------0------------0-----------0---------0---------|
D.---------------------------------------0-----------|
A.--7-------------5-----------3----------------------|
D.-------------------------------------5-------------|

La gente se fue cuando el sol bajó
Al borde del camino quedé sólo yo
Mientras pasaban les quise hablar
Pero el tiempo se niega a contestar

ESTRIBILLO:

                 Eltie..mpo sin  respue......sta  mepideestaraquí
d.-----------------------------------------------------------------------|
B.----------3--------3-----------3-----3---------3-----3--------3-----3--|
G.-----0------0--------0-----0-----0--------0------0-----0---0----0------|
D.-------0------0--------------0-----0--------0------0---------0----0----|
A.--5---------------------3---------------5-----------------3------------|
D.-----------------------------------------------------------------------|


              No hay bienvenidas para dar ni fo...............rmadepartir
d.------------------------------------------------------------------------|
B.----------3--------3-----------3-----3---------3-----3---------3-------3|
G.-----0------0--------0-----0-----0--------0------0-----0----0-----0-----|
D.-------0------0--------------0-----0--------0------0----------0------0--|
A.--5---------------------3---------------1-----------------0-------------|
D.------------------------------------------------------------------------|


Los pinos del monte no saben qué decir
Se guardan sus sueños para el porvenir
De pie se preguntan porqué será
Y el tiempo se niega a contestar

Año tras año el tiempo se va
Y nadie pregunta qué hago acá
Mientras miro al cielo, mi respuesta dirá:
Este tiempo se niega a contestar

El tiempo sin respuesta
Me pide estar aquí
No hay bienvenidas para dar
Ni forma de partir

Termina con la INTRO.
Suggest correction
Creating personal tab
Creating personal tab
You can edit any tab online and save it as your Personal.

You can edit, replace or remove any tab part or add personal notes – all changes will be seen only by you.

Personal tabs can be accessed anytime from any device, even offline.
Learn more »
Give kudos to tab author, rate the tab!
1 2 3 4 5
comments
print report bad tab
guest
Wanna post a correction for this tab? Suggest correction