Oops, an error
Loading. Please wait.

Narcos Prologue Theme Tab

version 1
version 1

Whole song

  • Includes both solo and ronroco melody, special tuning required.

Interactive

964 views 6 this week
no commentswrite comment
1 2 3 4 5
3 more votes to show rating
add to favorites
launch autoscroll
font size
0
reset
how to read this tab
guitar tuner
Autoscroll
slow
fast
+/-
esc
set tempo
stop
Help us to improve Ultimate-Guitar.com Take our survey!
×
Author
Difficulty
Capo
intermediate
6th fret
About this tab version
Includes both solo and ronroco melody, special tuning required. Was this info helpful? Yes No
Title: Prologue
Artist: Pedro Bromfman
Album: Narcos (A Netflix Original Series Soundtrack)
Copyright: Lakeshore Records
Tabbed by: 2ris2
Tempo = 80

The main melody is played on a ronroco. It needs a special tuning to be played on a guitar (E-F#-C-F-A#-F)
and a capo on the 5th fret. The solo is played with standard tuning and a capo on the 6th fret. 
Let me know if there are any issues with the tab. I'm open to corrections :D 
Please rate the tab if you found it useful!

Link to song:
https://www.youtube.com/watch?v=eN536D8rlxw

Link to Pedro Bromfman playing the ronroco melody: 
https://youtu.be/kOoFg1Jh-Mo?t=4m19s

[Ronroco melody]
Tuning: E-F#-C-F-A#-F
Capo: Fret 5

F |-----------0-----------0-----------0-----------0----|-----------0-----------0-----------0-----------0--|
A#|--------0-----------0-----------0-----------0-------|--------0-----------0-----------0-----------0-----|
F |-----0-----------0-----------0-----------0----------|-----0-----------0-----------0-----------0--------|
C |--------------1-----------------------1-------------|--------------3-----------------------3-----------| X2
F#|--4-----------------------4-------------------------|--3-----------------------3-----------------------|
E |----------------------------------------------------|--------------------------------------------------|


F#|-----------0-----------0-----------0-----------0----|-----------0-----------0-----------0-----------0--|
A#|--------0-----------0-----------0-----------0-------|--------0-----------0-----------0-----------0-----|
F |-----0-----------0-----------0-----------0----------|-----0-----------0-----------0-----------0--------|
C |--3-----------6-----------3-----------6-------------|--1-----------5-----------1-----------5-----------| X2
F#|----------------------------------------------------|--------------------------------------------------|
E |----------------------------------------------------|--------------------------------------------------|

F |-----------0-----------0-----------0-----------0----|-----------0-----------0-----------0-----------0--|
A#|--------0-----------0-----------0-----------0-------|--------0-----------0-----------0-----------0-----|
F |-----0-----------0-----------0-----------0----------|-----0-----------0-----------0-----------0--------|
C |--0-----------4-----------0-----------4-------------|--0-----------3-----------0-----------3-----------| X4
F#|----------------------------------------------------|--------------------------------------------------|
E |----------------------------------------------------|--------------------------------------------------|

[Solo]
This part is played along with the ronroco melody. Listen to the song to get the timing.
Tuning: Standard EADGBE
Capo: Fret 6

E |--------------------------1-----------------0------|--------------------------1-------------------1p0--|
B |--------------1--------1------------------------3--|--------------1--------1---------------------------|
G |---------2----------2------------------------------|---------2----------2------------------------------|
D |-----2---------------------------------------------|-----2---------------------------------------------|
A |--0------------------------------------------------|--0------------------------------------------------|
E |---------------------------------------------------|---------------------------------------------------|


E |----------------------------------------------0h1--|--------------------------------------------0------|
A |-------------------------------------------3-------|------------------------------------------------1--|
D |---------------------------------------------------|---------------------------------------------------|
G |---------------------------------------------------|---------------------------------------------------|
B |---------------------------------------------------|---------------------------------------------------|
E |---------------------------------------------------|---------------------------------------------------|

E |----------------------------------------------0h1--|--------------------------------------------0------|
A |-------------------------------------------3-------|------------------------------------------------1--|
D |---------------------------------------------------|---------------------------------------------------|
G |---------------------------------------------------|---------------------------------------------------|
B |---------------------------------------------------|---------------------------------------------------|
E |---------------------------------------------------|---------------------------------------------------|

E |--------------------------------------------0------|--------------------------------------------0------|
A |------------------------------------------------4--|------------------------------------------------3--|
D |---------------------------------------------------|---------------------------------------------------|
G |---------------------------------------------------|---------------------------------------------------| X4
B |---------------------------------------------------|---------------------------------------------------|
E |---------------------------------------------------|---------------------------------------------------|



************************************

| h  Hammer-on
| p  Pull-off 

************************************
Suggest correction
Give kudos to tab author, rate the tab!
1 2 3 4 5
comments
print report bad tab
guest
You may want to rate the tab now too:
select rating
Wanna post a correction for this tab? Suggest correction