Oops, an error
Loading. Please wait.

Las Golondrinas tab

version 2
version 2

Whole song

394 views 9 this week
no commentswrite comment
1 2 3 4 5
3 more votes to show rating
add to favorites
×
Save as Personal and add changes to this tab that will be seen only by you. Learn more ›
×
You can save this tab as Personal to edit and correct it or add notes. All changes will be seen only by you. Learn more »
launch autoscroll
font size
0
reset
how to read this tab
guitar tuner
edit
Autoscroll
slow
fast
+/-
esc
set tempo
stop
     6---------------------------------
     5---------------------------------
     4-7-------------------------------
     3---7-----------------------------
     2-----5-7---5-7-8------------8-7-5
     1------------------5-7-7---5------

     6---------------------------------
     5---------------------------------
     4-7-------------------------------
     3---7-----------------------------
     2-----5-7-----------5---5-8-7-5---
     1---------5-4-5-7-5---------------

     6--------------
     5--------------
     4-7------------
     3---7---------7
     2-----5-7---5--
     1--------------

     6-----------------------------------
     5-----------------------------------
     4-----------------------------------
     3----------------------------------7
     2-----------------8-5-7--------8-5--
     1--10-10-9--9-7-7-------5--4-5------

        D                A7
A donde ira, veloz y fatigada
          D                  A7
la golondrina que de aqui se va
           D        D7            G
asi en el cielo te    mira angustiada
     A7       D       A7        D
sin paz ni abrigo que la vio partir

             A7
Junto a, mi pecho
            D
hallaras salida
          A7
en donde pueda
               D
la estación pasar
                 D7
tambien yo estoy
                 G
en la region perdida
    A7     D       A7           D
oh cielo santo y, sin poder, volar

             A7
Junto a, mi pecho
            D
hallaras salida
          A7
en donde pueda
               D
la estación pasar
                 D7
tambien yo estoy
                 G
en la region perdida
    A7     D       A7           D
oh cielo santo y, sin poder, volar


(Se repite el intro)
Pueden usar tremolos sólo escuchen la canción

            
            
Suggest correction
Creating personal tab
Creating personal tab
You can edit any tab online and save it as your Personal.

You can edit, replace or remove any tab part or add personal notes – all changes will be seen only by you.

Personal tabs can be accessed anytime from any device, even offline.
Learn more »
Give kudos to tab author, rate the tab!
1 2 3 4 5
comments
print report bad tab
guest
Wanna post a correction for this tab? Suggest correction