Oops, an error
Loading. Please wait.

Nube Gris tab

109 views 3 this week
no commentswrite comment
1 2 3 4 5
3 more votes to show rating
add to favorites
×
Save as Personal and add changes to this tab that will be seen only by you. Learn more ›
×
You can save this tab as Personal to edit and correct it or add notes. All changes will be seen only by you. Learn more »
launch autoscroll
font size
0
reset
how to read this tab
guitar tuner
edit
Autoscroll
slow
fast
+/-
esc
set tempo
stop
Aqui tienen los acordes para nube gris, pero antes les muestro su
puinteo de ingreso:

E------------0p-0-0-1p-----0-1e-0-1-0-1-3-1-0------------
B---1-0-3-1----3-3------3-1-3----------------------------
G-p0-------------------0---------------------------------
D--------------------------------------------------------
A--------------------------------------------------------
E--------------------------------------------------------

E----------0p-0-3-3-1-0-3-1p-5-3-1-0------5-3------------
B---1-0-3-1-------------------------3-1------0-3-1-------
G-p0-----------------------------------0-1---------------
D--------------------------------------------------------
A--------------------------------------------------------
E--------------------------------------------------------

Despues de esto se vueleve a repetir pero con voz y es asi:

Si me alejo de ti...es xq he comprendido ...
                DO                  SOL7
que soy la nube gris...que nubla tu camino..
                SOL7                   DO
me voy para dejar...que cambie tu destino...
   DO        LA7                       DO
que seas muy feliz mientras yo busco olvido.
     FA        DO       LA7      RE  SOL7 DO

De ahi empieza la siguiente parte y la guitarra ayuda la voz:

E-3-4-5-7-5-7-5-3-4-5-8-5-8-5-3-4-5-7-5-7-5-3-4-5-------
B-------------------------------------------------------
G-------------------------------------------------------
D-------------------------------------------------------
A-------------------------------------------------------
E-------------------------------------------------------

E-8-5-8-5-0-1-3-3-3-3-4-3-1-0-3-1-0-1-8---0(4)-5-3-3-1-0
B--------------------------------------1-3--------------
G-------------------------------------------------------
D-------------------------------------------------------
A-------------------------------------------------------
E-------------------------------------------------------(BIS)

Y otra vez volvere a ser el herrante trobador
SOL7                          DO
que va en busca del amor, del amor de una mujer
       ZOL7                    DO
se apago el celaje azul donde brillaba la ilusión
  LA7                            RE            FA
vuelve la desolacion quedo sin luz. (BIS)
       DO    LA7     RE   SOL  DO

Alguna duda escribanme a mi correo cesar_z007@

            
            
Suggest correction
Creating personal tab
Creating personal tab
You can edit any tab online and save it as your Personal.

You can edit, replace or remove any tab part or add personal notes – all changes will be seen only by you.

Personal tabs can be accessed anytime from any device, even offline.
Learn more »
Give kudos to tab author, rate the tab!
1 2 3 4 5
comments
print report bad tab
guest
Wanna post a correction for this tab? Suggest correction