Oops, an error
Loading. Please wait.

Camino De Madrid tab

62 views 1 this week
no commentswrite comment
1 2 3 4 5
3 more votes to show rating
add to favorites
×
Save as Personal and add changes to this tab that will be seen only by you. Learn more ›
×
You can save this tab as Personal to edit and correct it or add notes. All changes will be seen only by you. Learn more »
launch autoscroll
font size
0
reset
how to read this tab
guitar tuner
edit
Autoscroll
slow
fast
+/-
esc
set tempo
stop
Hola! Hace tiempo que estoy pensando como debe ser esta cancion y...
por fin la he sacado!
No esta perfecta, eso ya lo se, a ver si me podeis ayudar
y entre todos la sacamos perfecta!
Bueno aqui os dejo el tab i los acordes con la letra.
Espero que os guste :D BY_nuria salmeron_

e--10--------0----10/12--10-8-8--10----7-8-5----------------------
b----8/7/8---------------------------0--------8/7/8/7--5/7---7/12-
g-----------7-7--7-------------------0----------------------------
d-----------------------------------------------------------------
a-----------------------------------------------------------------
e-----------------------------------------------------------------


e--------------------------------------------------10-10-10-10----
b-10-8-8---------7/8--10/9--7/6/7-8---7/6/7---7-8----8--8--8--8---
g------------7/8----------------------------7---------------------
d--------7/8------------------------------------------------------
a-----------------------------------------------------------------
e-----------------------------------------------------------------


e-----------------------------------2-----12h-
b-5/7--8-7-7----------------------0---0-------
g-------------7/6/7/6------------0-----0------
d----------------------7/8/7/8----------------
a---------------------------------------------
e---------------------------------------------

SOL                                         RE
Tu abrazo es el aire que hace que se infle el alma

SOL*                                SOL
Pero mi cuerpo es pequeño y no cabe tanta

SOL*                  MIm
Tu boca es una mentira, que no miente nunca

DO                                             RE
Es una mentira porque no hay una boca como la tuya


PRE CORO

SOL                           RE
La lágrima que te sale la guardaría

SOL*                               SOL
Pa' que no tuvieras pena y usaras siempre la misma

SOL*                      MIm
Te quiero abrazar de noche por si de dia

DO                                RE                  RE7
No puedes estar conmigo y con tu olor me conformaría


ESTRIBILLO

SOL*                 RE
Me acuerdo de ti camino de madrid

SOL                     MIm             DO
La cuatro gotas de un otoño que recien llegó

                       RE            SOL    SOL7
Sacó las ropas de su maleta y se instaló

SOL*                 RE
Y llegaste tu y llenaste de luz

SOL                      MIm           DO
Las rejas viejas de la baranda de mi balcón

                     RE                  SOL
Que hacía tiempo que no iluminaban mi habitación

   DO     RE  SOL   SOL7
La casa donde nací (x2)


e-10-10-10-10/8---7/10---8-8-8/7----12-12-12-12-12-
b---------------------------------8----------------
g--------------------------------------------------
d--------------------------------------------------
a--------------------------------------------------
e--------------------------------------------------


e--12-12-12-12-12---10-8-10----
b----------------------------8-
g------------------------------
d------------------------------
a------------------------------
e------------------------------

PRE CORO....

ESTIBILLO X2


SOL*
E--3--
B--3--
G--0--
D--2--
A--3--
E--0--
Suggest correction
Creating personal tab
Creating personal tab
You can edit any tab online and save it as your Personal.

You can edit, replace or remove any tab part or add personal notes – all changes will be seen only by you.

Personal tabs can be accessed anytime from any device, even offline.
Learn more »
Give kudos to tab author, rate the tab!
1 2 3 4 5
comments
print report bad tab
guest
Wanna post a correction for this tab? Suggest correction