Oops, an error
Loading. Please wait.

Eterno tab

82 views 1 this week
no commentswrite comment
1 2 3 4 5
3 more votes to show rating
add to favorites
×
Save as Personal and add changes to this tab that will be seen only by you. Learn more ›
×
You can save this tab as Personal to edit and correct it or add notes. All changes will be seen only by you. Learn more »
launch autoscroll
font size
0
reset
how to read this tab
guitar tuner
edit
Autoscroll
slow
fast
+/-
esc
set tempo
stop
Hola! esta es mi primer aportecillo en la cuerda, ya que no frecuento
tocar temas en guitarra acústica (o criolla o como sea la weá .l.) el
caso es que descubrí no hace más de 2 meses a este tremendo músico y
de inmediato me enamoré de su música, al punto de que saqué un par de
sus canciones y ésta la tuve que sacar mediante videos de covers y mi
oído, ya que no hay videos del propio tata tocándola, ni los acordes
en alguna página en internet :/ pero bueno, basta de palabras y a la
acción:

La intro de este tema es lo más complicado, trataré de que quede clara:

ADVERTENCIA!: Esta canción está en compás de 3/4, no compases enteros.

E|-------3-----2-----2-----------5-----3--2h3h2---0------|
B|-----0-----0-----0-----0-----0-----0----------3--------|
G|---0-----0-----0-----0-----0-----0---------------------|
D|-------------------------------------------------------|
A|-------------------------------------------------------|
E|-0-----------0-----------0-----------0-----------------|

E|-------3-----2-----2-----------3-----2h0---0-----------|
B|-----0-----0-----0-----0-----0-----0-----3-------------|
G|---0-----0-----0-----0-----0-----0-----------2h4-------|
D|-------------------------------------------------------|
A|-3-----------3----------3------------3-----------------|
E|-------------------------------------------------------|

Se repite la primera de esas y luego esto:


E|-------3-----2-----2--------0-----------------------|
B|-----0-----0-----0-----0----0-----------------------|
G|---0-----0-----0-----0------0-----4-2-0---0h2-------|
D|----------------------------------------2-----------|
A|-3-----------3-----------3--------------------------|
E|----------------------------------------------------|

Aquí se pone cuática (en especial porque son compases alternados
de 3/4 y 11/16):

  3/4                     11/16
E|-----0-----0----------------------------------|
B|---0-----0---3h1-0---0-0------0-----0-1--0----|
G|-------0-----------2------0-----0-2-----------|
D|-------------0--------------2-----------------|
A|-----------------------3----------2-----------|
E|-0--------------------------------------------|

  3/4                     11/16
E|-----0-----0----------------------------------|
B|---0-----0---3h1-0---0-0------0-----0-----0---|
G|-------0-----------2------0-----0-2---0-------|
D|-------------0--------------2-----------4-----|
A|-----------------------3----------2-----------|
E|-0--------------------------------------2-----|

Por último, el tata le agrega un bajo en F# al B7 (del verso y
coro), es decir que se tocaría algo así:

E|----------2
Suggest correction
Creating personal tab
Creating personal tab
You can edit any tab online and save it as your Personal.

You can edit, replace or remove any tab part or add personal notes – all changes will be seen only by you.

Personal tabs can be accessed anytime from any device, even offline.
Learn more »
Give kudos to tab author, rate the tab!
1 2 3 4 5
comments
print report bad tab
guest
Wanna post a correction for this tab? Suggest correction