Oops, an error
Loading. Please wait.

Bands With Managers tab

679 views 12 this week
no commentswrite comment
1 2 3 4 5
3 more votes to show rating
add to favorites
×
Save as Personal and add changes to this tab that will be seen only by you. Learn more ›
×
You can save this tab as Personal to edit and correct it or add notes. All changes will be seen only by you. Learn more »
launch autoscroll
font size
0
reset
how to read this tab
guitar tuner
edit
Autoscroll
slow
fast
+/-
esc
set tempo
stop
Author
-------------------------------------------------------------------------------
                             BANDS WITH MANAGERS - Pedro the Lion
-------------------------------------------------------------------------------
Tabbed by: khoneur

Tuning: drop D pls

tried to line up the chords with the lyrics as best I could. rate if you get the chance


   Bands with managers are going places
e|---------------------------------------------------------------------------|
B|---------------------------------------------------------------------------|
G|---------------------------------------------------------------------------|
D|-4-----4----4------------4-------------4---4-------------------------------|
A|-5-----5----5------------5-------------2---1-------------------------------|
D|-0-----6----5------------4-------------0---0-------------------------------|

   Bands with messy hair and smooth white faces
e|---------------------------------------------------------------------------|
B|---------------------------------------------------------------------------|
G|---------------------------------------------------------------------------|
D|-4-----4----4--------------4--------------------4---4----------------------|
A|-5-----5----5--------------5--------------------2---1----------------------|
D|-0-----6----5--------------4--------------------0---0----------------------| 
   
   You don't believe when I say that it won't be alright ..... allllright
e|---------------------------------------------------------------------------|
B|---------------------------------------------------------------------------|
G|---------------------------------------------------------------------------|
D|---0-----------0------------0-------0------------4-----------4----4------4-|
A|-12----------11-----------10-------9-------------2-----------1----5------5-|
D|-------------------------------------------------0-----------0----6------0-|
   
   Bands with fifteen passengers are rolling over
e|---------------------------------------------------------------------------|
B|---------------------------------------------------------------------------|
G|---------------------------------------------------------------------------|
D|-4----------4-------4--------------4--------------4---4--------------------|
A|-5----------5-------5--------------5--------------2---1--------------------|
D|-0----------6-------5--------------4--------------0---0--------------------|
 
 But I trust T. William Walsh and I'm not afraid to...
e|---------------------------------------------------------------------------|
B|---------------------------------------------------------------------------|
G|---------------------------------------------------------------------------|
D|---4-------4----------4-------------4--------------------------------------|
A|---5-------5----------5-------------5--------------------------------------|
D|---7-------6----------5-------------4--------------------------------------|
 
 ...die
e|---------------------------------------------------------------------------|
B|---------------------------------------------------------------------------|
G|---------------------------------------------------------------------------|
D|----0------0-----0------0---0----0------0------0------0---0---0------0-----|
A|--13-----10-----8-----10---6---13-----10-----12-----13---6---8-----10------|
D|---------------------------------------------------------------------------|

    You don't believe when I say that it won't be alright ..... allllright
e|---------------------------------------------------------------------------|
B|---------------------------------------------------------------------------|
G|---------------------------------------------------------------------------|
D|---4--------4--------------4--------4-------------4-----------4----4-------|
A|---5--------5--------------5--------5-------------2-----------1----5-------|
D|---7--------6--------------5--------4-------------0-----------0----6-------|
   
   That it won't be allllright ..... allllllriiiiiighhhhhhttttt
e|---------------------------------------------------------------------------|
B|---------------------------------------------------------------------------|
G|---------------------------------------------------------------------------|
D|------4----------------4-----------4------4--------------------------------|
A|------5----------------2-----------1------5--------------------------------|
D|------5----------------0-----------0------6--------------------------------|
    
    Cuz it won't be allllriiighhht ..... alllllriggghhhhtttt
e|---------------------------------------------------------------------------|
B|---------------------------------------------------------------------------|
G|---------------------------------------------------------------------------|
D|------4----------------4---------------4-----4-------4----------4----------|
A|------5----------------2---------------1-----5-------5----------5----------|
D|------5----------------0---------------0-----6-------5----------4----------|


************************************

| /   slide up
| \   slide down
| h   hammer-on
| p   pull-off
| ~   vibrato
| +   harmonic
| x   Mute note
| b   Bend
| pb  Pre-bend
| br  Bend release
| pbr Pre-bend release
| brb Bend release bend

************************************

            
            
Suggest correction
Creating personal tab
Creating personal tab
You can edit any tab online and save it as your Personal.

You can edit, replace or remove any tab part or add personal notes – all changes will be seen only by you.

Personal tabs can be accessed anytime from any device, even offline.
Learn more »
Give kudos to tab author, rate the tab!
1 2 3 4 5
comments
print report bad tab
guest
You may want to rate the tab now too:
select rating
Wanna post a correction for this tab? Suggest correction