Oops, an error
Loading. Please wait.

I Am Always The One Who Calls bass

737 views 9 this week
1 commentread comment
1 2 3 4 5
x 4
add to favorites
×
Save as Personal and add changes to this tab that will be seen only by you. Learn more ›
×
You can save this tab as Personal to edit and correct it or add notes. All changes will be seen only by you. Learn more »
launch autoscroll
font size
0
reset
guitar tuner
edit
Autoscroll
slow
fast
+/-
esc
set tempo
stop
Author
I Am Always the One Who Calls
Pedro the Lion

rate cuz this took me a bitch of a long time to tab cuz it's hard to hear the bass
(99.99%, maybe even 100% accurate)

Intro
G|-----------------------------------------------------------------|
D|-----------------------------------------------------------------|
A|--------------------------------8-8-8-8-8-8-8-8-8-8-8-8-8-8-8-8--|
E|6-6-6-6-6-6-6-6-6-6-6-6-6-6-6------------------------------------|

G|--------------------------------|
D|--------------------------------|
A|--------------------------------|
E|6-6-6-6-6-6-6-6-6-6-6-6-6-6-6-6-|

Verse 0:16 x4
G|------------------------------------------------|
D|------------------------------------------------|
A|8-8-8-8-8-8-8-8-8-8-8-8-5-5-5-5-5-5-5-5-5-5-5-5-|
E|------------------------------------------------|

Pre-Chorus 0:47 = Play nothing

Chorus 1:07 x2
G|----------------------------------------------------------------|
D|----------------------------------------------------------------|
A|8-8-8-8-8-8-8-8-----------------5-5-5-5-5-5-5-5-3-3-3-3-3-3-3-3-|
E|----------------6-6-6-6-6-6-6-6---------------------------------|

Play the Intro again 1:29

Verse 1:44 x4

Pre-Chorus 2:15
G|-----------------------------------------------------------------------|
D|-----------------------------------------------------------------------|
A|1-1-1-1-1-1-1-1-8-8-8-8-8-8-8-8-10-10-10-10-10-10-10-10-10-10-10-10-10-|
E|-----------------------------------------------------------------------|

G|--------------------------------------------------------------|
D|--------------------------------------------------------------|
A|0-0-0-1-1-1-1-1-1-1-1-8-8-8-8-8-8-8-8-10-10-10-10-10-10-10-10-|
E|--------------------------------------------------------------|

G|----------------|
D|----------------|
A|3-3-3-3-3-3-3-3-|
E|----------------|

Chorus x2 2:36

Outro 2:57
G|----------------------------------------------------------------|
D|----------------------------------------------------------------|
A|4-4-4-4-4-4-4-4-----------------4-4-4-4-4-4-4-4-----------------|
E|----------------4-4-4-4-4-4-4-4-----------------6-6-6-6-6-6-6-6-|

G|----------------------------------------------------------------|
D|----------------------------------------------------------------|
A|----------------1-1-1-1-1-1-1-1-8-8-8-8-8-8-8-8-3-3-3-3-3-3-3-3-|
E|1-1-1-1-1-1-1-1-------------------------------------------------|

G|----------------------------------------------------------------|
D|----------------------------------------------------------------|
A|----------------1-1-1-1-1-1-1-1-8-8-8-8-8-8-8-8-3-3-3-3-3-3-3-3-|
E|1-1-1-1-1-1-1-1-------------------------------------------------|

G|---------------|
D|---------------|
A|-------------1~|
E|3-3-3-3-3-3-3--|

Thats it. RATE PLEASE
PS: Right now.

            
            
Suggest correction
Creating personal tab
Creating personal tab
You can edit any tab online and save it as your Personal.

You can edit, replace or remove any tab part or add personal notes – all changes will be seen only by you.

Personal tabs can be accessed anytime from any device, even offline.
Learn more »
comments
print report bad tab
1 comment total.
0 reply
F-Dingo 21 Dec 06, 2014 01:01 PM

Spot on, thank you!

guest
You may want to rate the tab now too:
select rating
Wanna post a correction for this tab? Suggest correction