Oops, an error
Loading. Please wait.

Mojo Tab

3,903 views 6 this week
no commentswrite comment
1 2 3 4 5
1 last vote to show rating
add to favorites
launch autoscroll
font size
0
reset
how to read this tab
guitar tuner
Autoscroll
slow
fast
+/-
esc
set tempo
stop
Help us to improve Ultimate-Guitar.com Take our survey!
×
Author
Difficulty
Tabbers playing skills
novice
advanced
-------------------------------------------------------------------------------
                             Mojo – Peeping Tom
-------------------------------------------------------------------------------
Tabbed by:Omri
Email: I.m.bleach

Tuning:standard
OK, this song out of Mike Patton most recent project is fairly easy, so I tabbed it out 
for you!, I'm putting it under Intro because I want to in the last version to finish 
organs in the back.
INTRO:
e|----------------------------------|
B|----------------------------------|
G|-----5-6-3-5-1-3----6-8-5-6-3-5---|
D|---3------------------------------|
A|----------------------------------|
E|----------------------------------|
This is the intro riff. It repeats itself throughout the song beside the verses

Back (second) Guitar for the riff:
e|---------------------------------------------------------------------------|
B|---------------------------------------------------------------------------|
G|---------------------------------------------------------------------------|
D|--3-3--3-3--4-4--4-4-------------------------------------------------------|
A|--3-3--3-3--4-4--4-4-------------------------------------------------------|
E|--1-1--1-1--2-2--2-2-------------------------------------------------------|

The Chorus riff is the same exept theres a little Ab After the F and The Gb

   This is the riff which you can hear in the background of the song in the pre chorus 
my party…) arranged for guitar
e|----------5~--7~---5--|
B|-------7~-------------|
G|----------------------| Repeat itself until chorus
D|----------------------|
A|----------------------|
E|----------------------|


| /  slide up
| \  slide down
| h  hammer-on
| p  pull-off
| ~  vibrato
| +  harmonic
| x  Mute note
===============================================================================

For notes/question/soul mate/ viruses send me an e-mail-
i.m.bleach@gmail.com
Suggest correction
Give kudos to tab author, rate the tab!
1 2 3 4 5
comments
print report bad tab
guest
You may want to rate the tab now too:
select rating
Wanna post a correction for this tab? Suggest correction