Oops, an error
Loading. Please wait.

Ribena Tab

version 1
version 1

Acoustic

Whole song

11,824 views 6 this week
no commentswrite comment
1 2 3 4 5
accurate
x 3
add to favorites
launch autoscroll
font size
0
reset
how to read this tab
guitar tuner
Autoscroll
slow
fast
+/-
esc
set tempo
stop
Help us to improve Ultimate-Guitar.com Take our survey!
×
Author
Difficulty
lukepp 163
novice
-----------------------------------------------------
Ribena (acoustic version) – Pegasus Bridge
-----------------------------------------------------
Tabbed by: Luke Priest
Email: luke.priest@hotmail.com
Tuning: Standard
I tried to upload this tab about a month ago but it would not upload for some reason
I think this is alright, you may want to change parts to fit better, 
and let me know if there is anything I can improve for it. Listen to the song for the rhythms.
Intro:
E|------------------|
B|-8-12-7-3-5-5-5-5-|
G|-0-0--0-0-0-0-0-0-|		x 4
D|-0-0--0-0-5-5-5-5-|
A|-7-10-5-2-3-3-3-3-|
E|-8-12-7-3---------|
Verse 1:
Palm mute after each chord except last three, also quieter than intro.
E|------------------|
B|-8-12-7-3-5-5-5-5-|
G|-0-0--0-0-0-0-0-0-|		x 4 
D|-0-0--0-0-5-5-5-5-|
A|-7-10-5-2-3-3-3-3-|
E|-8-12-7-3---------|
No more palm mute and louder.
E|------------------|
B|-8-12-7-3-5-5-5-5-|
G|-0-0--0-0-0-0-0-0-|		x 4 
D|-0-0--0-0-0-0-0-0-|
A|-7-10-5-2-3-3-3-3-|
E|-8-12-7-3---------|
Chorus:
E|-------------------------------------|
B|-5-5-5-5-7-7-7-7-8-8-8-8-12-12-12-12-|
G|-------------------------------------|		x 2
D|-5-5-5-5-7-7-7-7-0-0-0-0-0--0--0--0--|
A|-3-3-3-3-5-5-5-5-7-7-7-7-10-10-10-10-|
E|-3-3-3-3-5-5-5-5-8-8-8-8-12-12-12-12-|

E|------------------|
B|-8-12-7-3-5-5-5-5-|
G|-0-0--0-0-0-0-0-0-|		x 2
D|-0-0--0-0-5-5-5-5-|
A|-7-10-5-2-3-3-3-3-|
E|-8-12-7-3---------|



Verse 2:
E|-------------------|
B|-------------------|
G|-------------------|		x 4
D|-------------------|
A|-7-10-5-2-3-3-3-3--|
E|-------------------|

E|------------------|
B|-8-12-7-3-5-5-5-5-|
G|-0-0--0-0-0-0-0-0-|		x 2 
D|-0-0--0-0-0-0-0-0-|
A|-7-10-5-2-3-3-3-3-|
E|-8-12-7-3-5-5-5---|
Chorus:
E|-------------------------------------|
B|-5-------7-------8-------12----------|
G|-0-------0-------0-------0-----------|
D|-5-------0-------0-------0-----------|
A|-3-------5-------7-------10----------|
E|-3-------5-------8-------12----------|

E|-------------------------------------|
B|-8------10------8------12------------|
G|-0------0-------0------0-------------|
D|-0------0-------0------0-------------|
A|-7------9-------7------10------------|
E|-8------10------8------12------------|

E|-------------------------------------|
B|-x-8-8-8-x-12-12-12-x-7-7-7-x-3-3-3-5|
G|-x-0-0-0-x-0--0--0--x-0-0-0-x-0-0-0-0|		x2
D|-x-0-0-0-x-0--0--0--x-0-0-0-x-0-0-0-0|
A|-x-7-7-7-x-10-10-10-x-5-5-5-x-2-2-2-3|
E|-x-8-8-8-x-12-12-12-x-7-7-7-x-3-3-3--|
Bridge:
E|-------------------------------------|
B|-x-8-8-8-x-12-12-12-x-7-7-7-x-3-3-3-5|
G|-x-0-0-0-x-0--0--0--x-0-0-0-x-0-0-0-0|		x2
D|-x-0-0-0-x-0--0--0--x-0-0-0-x-0-0-0-0|
A|-x-7-7-7-x-10-10-10-x-5-5-5-x-2-2-2-3|
E|-x-8-8-8-x-12-12-12-x-7-7-7-x-3-3-3--|






Chorus/ending:
E|-------------------------------------|
B|-5-------7-------8-------12----------|
G|-------------------------------------|
D|-5-------7-------0-------0-----------|
A|-3-------5-------7-------10----------|
E|-3-------5-------8-------12----------|


E|-------------------------------------|
B|-5-5-5-5-7-7-7-7-8-8-8-8-12-12-12-12-|
G|-------------------------------------|
D|-5-5-5-5-7-7-7-7-0-0-0-0-0--0--0--0--|
A|-3-3-3-3-5-5-5-5-7-7-7-7-10-10-10-10-|
E|-3-3-3-3-5-5-5-5-8-8-8-8-12-12-12-12-|

E|--------------------------------------------------|
B|-8-8-8-8---10-10-10-10---8-8-8-8---12-12-12-12----|
G|-0-0-0-0---0--0--0--0----0-0-0-0---0--0--0--0-----|
D|-0-0-0-0---0--0--0--0----0-0-0-0---0--0--0--0-----|
A|-7-7-7-7---9--9--9--9----7-0-0-0---10-10-10-10----|
E|-8-8-8-8---10-10-10-10---8-0-0-0---12-12-12-12----|

E|--------------------------------------|
B|-8-8-8-8---10-10-10-10---8-8---12-----|
G|-0-0-0-0---0--0--0--0----0-0---0------|
D|-0-0-0-0---0--0--0--0----0-0---0------|
A|-7-7-7-7---9--9--9--9----7-0---10-----|
E|-8-8-8-8---10-10-10-10---8-0---12-----|

E|---------------------------------------|
B|-x-8-8-8-x-12-12-12--7--12--5--3--5-5-5|
G|-x-0-0-0-x-0--0--0---0--0---0--0--0-0-0|
D|-x-0-0-0-x-0--0--0---0--0---0--0--0-0-0|
A|-x-7-7-7-x-10-10-10--5--10--5--2--3-3-3|
E|-x-8-8-8-x-12-12-12--7--12--7--3-------|

************************************
| /   slide up
| \   slide down
| h   hammer-on
| p   pull-off
| ~   vibrato
| +   harmonic
| x   Mute note
| b   Bend
| pb  Pre-bend
| br  Bend release
| pbr Pre-bend release
| brb Bend release bend

***********************************
Suggest correction new What's this?
You can suggest a correction to this tab. Community and Mods will review your correction and vote to approve or reject it.
comments
We did not receive enough feedback on this tab! Please rate:
print report bad tab
1 2 3 4 5
guest
You may want to rate the tab now too:
select rating
Please do not post tabs as comments. Select "correction" instead!