Oops, an error
Loading. Please wait.

Fever Bass Tab

version 2
version 2

Whole song

Interactive

63,167 views 168 this week
3 commentsread comments
1 2 3 4 5
excellent!
x 12
add to favorites
launch autoscroll
font size
0
reset
guitar tuner
Autoscroll
slow
fast
+/-
esc
set tempo
stop
Help us to improve Ultimate-Guitar.com Take our survey!
×
Author
Difficulty
novice
Peggy Lee - Fever
Album: Best of Peggy Lee

Basicly the whole song uses the same riff. Listen to the song for the rythm, it's not hard =)


[Intro] 
G|-----------------|
D|-----------2-----|
A|-0-3-0-3-0-----0-|    x2
E|-------------3---|


[Riff 1]
G|---------------------------------------|
D|---------2----------2------------2-----|  
A|-0-3-0-3----0-3-0-3----0-3-0-3-0-----0-|
E|---------------------------------0-3---|

Never know how much I love you, never know how much I care
When you put your arms around me, I get a fever that's so hard to bear
You give me fever, when you kiss me, fever when you hold me tight
Fever! In the morning, fever all through the night


[Fill:]
G|-------|
D|-2p0---|
A|-----3-|
E|-------|


[Riff 1]
Sun lights up the daytime, moon lights up the night
I light up when you call my name, and you know I'm gonna treat you right
You give me fever, when you kiss me, fever when you hold me tight
Fever! In the morning, fever all through the night


[Riff 1]
Everybody's got the fever, that is something you all know
Fever isn't such a new thing, fever started long ago


[Bridge 1]            [Fill:]  
G|-----------------|  G|---------|
D|-----------3-----|  D|-3p1-----|
A|-1-4-1-4-1-----1-|  A|-----3-2-|
E|-------------4---|  E|---------|

[Riff 2:]
G|---------------------------------------|
D|---------3----------3------------3-----|  
A|-1-4-1-4---1-4-1-4----1-4-1-4-1------1-|
E|-----------------------------------4---|

Romeo loved Juliet, Juliet she felt the same
When he put his arms around her, he said, "Julie, Baby, you're my flame"
"Thou giveth fever, when we kisseth, fever with thy flaming youth
"Fever! I'm afire, fever, yeah, I burn, forsooth."


[Riff 3:]
G|---------------------------------------|
D|---------4---------4------------4------|  
A|-2-5-2-5---2-5-2-5----2-5-2-5-2-----2--|
E|----------------------------------5----|

Captain Smith and Pocahontas had a very mad affair
When her daddy tried to kill him, she said, “Daddy, oh, don't you dare!”
"He gives me fever with his kisses, fever when he holds me tight
Fever! I'm his misses, so Daddy, Won't you treat him right?”


[Riff 3]
Now you've listened to my story, here's the point that I have made
Chicks were born to give you fever, be it Fahrenheit or Centigrade
They give you fever, when you kiss them, fever if you live and learn
Fever! 'till you sizzle, what a lovely way to burn


[Repeat this part:]
G|-----------|
D|-----4-----|
A|-5-2-----2-|
E|-------5---|

what a lovely way to burn
what a lovely way to burn
what a lovely way to burn


[Outro:]
G|------------|
D|------------|
A|-5-2-----2~-|
E|-----2-5----|
Suggest correction
What's this?
You can suggest a correction to this tab. Community and Mods will review your correction and vote to approve or reject it.
comments
print report bad tab
3 comments total.
+1 reply
sen.4rundhati 13 wrote on March 23 2012, 01:22 pm

Great tab, thank you, but:

Riff 2 [Fill:]
D|-3p1-----|
A|-----4-3-|

+1 reply
0olong 139 wrote on March 28 2012, 05:13 am

I think the G (3 on the E string) should actually be G# (4 on the E string), going by more than one version of the sheet music (as well as the instincts of my musical housemate). It's slightly counter-intuitive - G is probably a bit more harmonious there, but G# seems to be what Peggy Lee's version uses!

0 reply
squidT 31 wrote on April 15 2014, 11:44 pm

Totally agree with 0olong, bring that lowest note up a half step for each of the parts. I think the G# is meant to build some tension, which is then immediately resolved at the end of the riff by sliding up to the A.

guest
You may want to rate the tab now too:
select rating
Please do not post tabs as comments. Select "correction" instead!