Oops, an error
Loading. Please wait.

Sin Aamuna Tab

321 views 1 this week
no commentswrite comment
1 2 3 4 5
please rate
add to favorites
launch autoscroll
font size
0
reset
how to read this tab
guitar tuner
Tab Pro tools
  • play this tab
  • loop segment
  • change instrument
  • show fretboard
  • metronome
×
Best way to learn
"Sin Aamuna"
Autoscroll
slow
fast
+/-
esc
set tempo
stop
Contributor
Pekka Streng - Sinä Aamuna
http://www.pekkastreng.net/

Tabbed by: Niklas Kumpulainen
Tuning: E


Verse:
G#m
|------------------------------------------|
|-----4--------4------4---------4-4---4----|
|---4---4---4-4--4--4---4---4--------------|
|--6-6-6-6-6-6--6--6-6-6-6-6-6-6-6-6-6-6-6-|
|-----------------------------------6---6--|
|-4-------4-------4-------4---4------------|

F#
|-2---2-------2---2-------2---2----|
|---2--2--------2--2--------2---2--|
|-------3---4-------3---4----------|
|--4-4---------4-4---------4-4-4-4-|
|---------4-----------4------------|
|----------------------------------|

E
|---0------------0--------------|
|---0------------0--------------|
|---1------------1--------------|
|---2------------2--------------|
|-2-2------------2--------------|
|-------------------------------|

C#m               F#
|-----------------2---2---2---2---2---2---2-----|
|-5---5---5---5----2-2-2-2-2-2-2-2-2-2-2-2-2--2-|
|--6-6-6-6-6-6-6-6------------------------------|
|---6---6---6---6---4---4---4---4---4---4---4---|
|-----------------------------------------------|
|-----------------------------------------------|



[Verse]
G#m
minä itken
sinua jo
F#
tätä hiillosta
tätä kalman hajua
E
vaikka käki kukkuu vielä
C#m
minä lähetän käsistäni
F#
liudan valkoisia kukkia
hajoamaan tuuleen
koskettamatta

[Chorus]
G#m      E       C#m       F#
kun sinä aamuna
G#m      E          C#m      F#
        sinä aamuna
G#m      E           C#m                F#
pukeudun valkoiseen, kävelen yli veden
G#m           E       C#m      F#
käyn lootuksenkukkaan          nukkumaan
G#m  E     C#m   F#
sinä aamuna
G#m  E     C#m   F#
sinä aamuna
G#m  E     C#m   F#
sinä aamuna

[Solo]
G#m  E     C#m   F#
G#m

|-11-----------16------16-19-16--14h16p14-12--11h12p11-----9-----9-----------|
|--14b16--17b19-17b19---------------------------------14~--12b14--12b14r12-9-|
|----------------------------------------------------------------------------|
|----------------------------------------------------------------------------|
|----------------------------------------------------------------------------|
|----------------------------------------------------------------------------|
comments
We did not receive enough feedback on this tab! Please rate:
print report bad tab
1 2 3 4 5
I want to post or [tab]
guest
You may want to rate the tab now too:
select rating
Please do not post tabs as comments. Select "correction" instead!