Oops, an error
Loading. Please wait.

Guerra Santa tab

8 views 1 this week
no commentswrite comment
1 2 3 4 5
3 more votes to show rating
add to favorites
×
Save as Personal and add changes to this tab that will be seen only by you. Learn more ›
×
You can save this tab as Personal to edit and correct it or add notes. All changes will be seen only by you. Learn more »
launch autoscroll
font size
0
reset
how to read this tab
guitar tuner
edit
Autoscroll
slow
fast
+/-
esc
set tempo
stop
  (Introducción)
 Riff 1 [x4]:
 Am                               Bm
 |       |       |       |        |       |       |       |
|--------------------------------|--------------------------------|
|--------------------------------|--------------------------------|
|--------------------------------|--------------------------------|
|7---x---x---7---x---x---7---x---|8---x---x---8---x---x---8---x---|
|7---x---x---7---x---x---7---x---|8---x---x---8---x---x---8---x---|
|5---x---x---5---x---x---5---x---|6---x---x---6---x---x---6---x---|

 Am                               Bm
 |       |       |       |        |       |       |       |
|--------------------------------|--------------------------------|
|--------------------------------|--------------------------------|
|--------------------------------|--------------------------------|
|7---x---x---7---x---x---x---7---|8-------------------------------|
|7---x---x---7---x---x---x---7---|8-------------------------------|
|5---x---x---5---x---x---x---5---|6-----------6h8p6---------------|

 Riff 2 [x2]:
 Am                               F
 |       |       |       |        |       |       |       |
|--------------------------------|--------------------------------|
|--------------------------------|--------------------------------|
|--------------------------------|--------------------------------|
|--------------------------------|----------------3---3-----------|
|----------------3---3-----------|------------------------2-------|
|5-----------5-----------3---2---|1-----------1---------------0---|

 Am                               F
 |       |       |       |        |       |       |       |
|--------------------------------|--------------------------------|
|--------------------------------|--------------------------------|
|--------------------------------|--------------------------------|
|--------------------------------|--------------------------------|
|----------------3---3-----------|--------------------------------|
|5-----------5-----------3---2---|1-------------------------------|


 (con riff 1)
Guerra fría,
guerra santa,
guerra por la libertad.
Humanos la guerra no se extingue,
nos diluye,
corta la esencia.

 (Estribillo 1, con riff 2)
Destrucción en masa,
destrucción, avisados están.

 (con riff 1)
Vienen, vienen bajando,
vienen y como un flash se van.
Lo dicho es palabra santa,
la profecia se cumplirá.

 (Estribillo 2, con riff 2)
Paz, bendita paz,
sos tan intangible, casi irreal.

 (Interludio, solo de saxo)
 Am Bm [x8]
 Riff 2 [x2]

 (con riff 1)
Caen bombas en el mundo,
caen también niños mutilados.
Yo no quiero la guerra, no busco guerra,
por amor al Dios, nunca más.

 (Repite Estribillo 1 y Estribillo 2)

 (Final con riff 2)

            
            
Suggest correction
Creating personal tab
Creating personal tab
You can edit any tab online and save it as your Personal.

You can edit, replace or remove any tab part or add personal notes – all changes will be seen only by you.

Personal tabs can be accessed anytime from any device, even offline.
Learn more »
Give kudos to tab author, rate the tab!
1 2 3 4 5
comments
print report bad tab
guest
Wanna post a correction for this tab? Suggest correction