Oops, an error
Loading. Please wait.

La Piel tab

30 views 3 this week
no commentswrite comment
1 2 3 4 5
3 more votes to show rating
add to favorites
×
Save as Personal and add changes to this tab that will be seen only by you. Learn more ›
×
You can save this tab as Personal to edit and correct it or add notes. All changes will be seen only by you. Learn more »
launch autoscroll
font size
0
reset
how to read this tab
guitar tuner
edit
Autoscroll
slow
fast
+/-
esc
set tempo
stop
Este tema creo q es de psikoticos

Intro con el bajo y entra la guitarra con
   MI5       RE5      SOL#5
e|----------------------------
B|----------------------------
G|----------------------------
D|--------------------66666---
A|--7-------5-----------------
E|----------------------------

(todo el tema con la misma base)

SOL#5
Mira que bien, estas muy guapa
RE5
vaya nivel, que de pasta,
SOL#5            RE5
mira que bien... vaya nivel.
MI5 RE5       SOL#5
Esa no es tu piel!

Sabes muy bien, que han matado
a un animal que han arrancado,
sabes muy bien, tu tu tu tu tu tu sabes muy bien,
que esa es su piel!

Le han matado, oh oh oh   |
Le han sacrificado por ti |
Le han quitado, oh oh oh  |estribillo
toda una vida por ti      |
Para quitarle la piel.    |

Estas alejado, a tu paso
de ser animal me das asko,
SI estas A MI lado....wuak!.... me tengo que ir
Porque llevas su piel!

La gente es muy cruel, matando focas
pa luego vestir a muchas Zorras
yo tengo piedad... tambien yo soy animal
Si hay huevos coger mi piel!!!

ESTRIBILLO

solito:
e|------------------------|---------------7---7-8-|
B|-9---7---7-7-8-9-8-7-8--|-9---7---7-7-8---9-----|
G|------------------------|-----------------------|(x2)
D|------------------------|-----------------------|
A|------------------------|-----------------------|
E|------------------------|-----------------------|
y sigue esto bien pegado a lo ultimo:
e|-9-9-7--7-7--9-9-7--7-7---9~-7-8-|
B|------------------------9~-------|todo de vuelta pero sin el ultimo
G|---------------------------------| "7-8"(termina en 9~)
D|---------------------------------|
A|---------------------------------|
E|---------------------------------|

ESTRIBILLO

laralala, laralalalalala, laralala laralalalalala...esto va con:
(la base pero tirando solamente SOL# y despues una ves el solito)


sabes muy bien!


BAJO:

INTRO:
   SOL#    RE     SOL#    MI     RE    SOL#

G|--------------------------------------------
D|--6666666-------6666666-------------6666666-
A|---------5555555-------7-7777-5-5555--------
E|--------------------------------------------


(todo el tema con la misma base)

            
            
Suggest correction
Creating personal tab
Creating personal tab
You can edit any tab online and save it as your Personal.

You can edit, replace or remove any tab part or add personal notes – all changes will be seen only by you.

Personal tabs can be accessed anytime from any device, even offline.
Learn more »
Give kudos to tab author, rate the tab!
1 2 3 4 5
comments
print report bad tab
guest
Wanna post a correction for this tab? Suggest correction