Oops, an error
Loading. Please wait.

Speed Tab

version 1
version 1

Whole song

Interactive

239 views 3 this week
1 commentread comment
1 2 3 4 5
please rate
add to favorites
launch autoscroll
font size
0
reset
how to read this tab
guitar tuner
Autoscroll
slow
fast
+/-
esc
set tempo
stop
Help us to improve Ultimate-Guitar.com Take our survey!
×
Author
Difficulty
novice
 Hi there, this is my first tab and I'm still working on it.
 Let me know if you think some of these chords are wrong so I can fix it ^^

 No timing on tabs, listen to the song to get it right ;)


Intro Riff: Played 4 times.
e|----------------------------------------|
b|----------------------------------------|
g|---9--9--9--7--9--9---------------------|
d|---9--9--9--7--9--9---7/9--7--5--7--7---|
a|---7--7--7--5--7--7---7/9--7--5--7--7---|
E|----------------------5/7--5--3--5--5---|

Verse Chords
First:
e|----------------------------|
b|----------------------------|
g|--9-9-9---------------------|
d|--9-9-9---9--7--5--5--7--7--|
a|--7-7-7---9--7--5--5--7--7--|
E|----------7--5--3--3--5--5--|

And then:
e|-------------------------------------------------------|
b|-------------------------------------------------------|
g|--9-------7-------245--5-------------------------------|
d|--9(x15)--7(x14)--245--5(x16)--5------7----------------|
a|--7-------5-------023--3-------5(x9)--7(x7)------------|
E|-------------------------------3------5----------------|

Chorus: (xx) Listen to get correct strumming
e|-------------------------------------|
b|-------------------------------------|
g|---6-----4-------------5-4-2---------|
d|---6(xx)-4(xx)--7------5-4-2--5-5-4--|
a|---4-----2------7(xx)--3-2-0--5-5-4--|
E|----------------5-------------3-3-2--|


e|-------------------------------------|
b|-------------------------------------|
g|---6-----4---------------------------|
d|---6(xx)-4(xx)--7-5------4-5--7------|
a|---4-----2------7-5(x3)--4-5--7(xx)--|
E|----------------5-3------2-3--5------|

e|-------------------------------------|
b|-------------------------------------|
g|---6-----4-------------5-4-2---------|
d|---6(xx)-4(xx)--7------5-4-2--5-5-4--|
a|---4-----2------7(xx)--3-2-0--5-5-4--|
E|----------------5-------------3-3-2--|


e|---------------------------------------------|
b|---------------------------------------------|
g|---6-----4----------------------------7-7-7--|
d|---6(xx)-4(xx)--7-5------4-5--7--5-4--7-7-7--|
a|---4-----2------7-5(x3)--4-5--7--5-4--5-5-5--|
E|----------------5-3------2-3--5--3-2---------|


x2 Intro Riff:

Repeat Verse Riffs:

Repeat Chorus:


Solo Chords:
e|----------------------------------------------------|
b|----------------------------------------------------|
g|--6--6--4--4--------------4--4--6--6----------------|
d|--6--6--4--4--6--6--7--7--4--4--6--6--7--7--4--4----|
a|--4--4--2--2--6--6--7--7--2--2--4--4--7--7--4--4----|
E|--------------4--4--5--5--------------5--5--2--2----|

e|---------------------------------------------------------|
b|---------------------------------------------------------|
g|--6--6--4--4--------------4--4--6--6---7^7^7^7^7^7^7^7^--|
d|--6--6--4--4--6--6--7--7--4--4--6--6---7^7^7^7^7^7^7^7^--|
a|--4--4--2--2--6--6--7--7--2--2--4--4---5^5^5^5^5^5^5^5^--|
E|--------------4--4--5--5---------------------------------|

Repeat Chorus:

Repeat Intro Riff x2:

Then finish:
e|----------------------------------------|
b|----------------------------------------|
g|---9--9--9--7--9--9---------------------|
d|---9--9--9--7--9--9---9-8-7--5--7--9--7-|
a|---7--7--7--5--7--7---9-8-7--5--7--9--7-|
E|----------------------7-6-5--3--5--7--5-|


Guess it's about 70% correct, comment please and help me improve it :D
It's Pencilcase!
Suggest correction
Give kudos to tab author, rate the tab!
1 2 3 4 5
comments
print report bad tab
1 comment total.
0 reply
Dethdisko 1,232 wrote on July 18 2013, 05:21 am

Pretty well done, I must say. Still needs some minor fixes, though. A sure 4-star tab.

guest
You may want to rate the tab now too:
select rating
Please do not post tabs as comments. Select "correction" instead!