Oops, an error
Loading. Please wait.

Blood Sugar Tab

version 1
version 1

Solo

Whole song

Interactive

770 views 1 this week
no commentswrite comment
1 2 3 4 5
3 more votes to show rating
add to favorites
launch autoscroll
font size
0
reset
how to read this tab
guitar tuner
×
Best way to learn
"Blood Sugar"
Autoscroll
slow
fast
+/-
esc
set tempo
stop
Author
Difficulty
Please read first. This is not the original Blood Sugar tab but the one performed live
at Brixton Academy. My second Pendulum tab, tabbed by ear but still sounds good I think. Enjoy!

e|-9--8--6----|-------8-------|-------6------|-------6--------|
B|----------8-|-8-8-6---8-----|-6---8---8----|-6-6-8---8------|
G|------------|---------------|--------------|----------------|
D|------------|---------------|--------------|----------------|
A|------------|---------------|--------------|----------------|
D|------------|---------------|--------------|----------------|
  0:52

e|-9--8--6----|-------8-------|-------6------|----------------|
B|----------8-|-8-8-6---8-----|-6---8---8----|-8-6-6-6-6-6----|
G|------------|---------------|--------------|----------------|
D|------------|---------------|--------------|----------------|
A|------------|---------------|--------------|----------------|
D|------------|---------------|--------------|----------------|

e|-9--8--6----|-------8-------|-------6------|-------6--------|
B|----------8-|-8-8-6---8-----|-6---8---8----|-6-6-8---8------|
G|------------|---------------|--------------|----------------|
D|------------|---------------|--------------|----------------|
A|------------|---------------|--------------|----------------|
D|------------|---------------|--------------|----------------|

e|-9--8--6----|---------------|-9--8--6------|-----6-8-9------|
B|----------8-|-8-8-8-8-8-8---|----------8---|-8-8-------8----|
G|------------|---------------|--------------|----------------|
D|------------|---------------|--------------|----------------|
A|------------|---------------|--------------|----------------|
D|------------|---------------|--------------|----------------|
  1:15

e|-9--8--6----|-------8-------|-------6------|-------6--------|
B|----------8-|-8-8-6---8-----|-6---8---8----|-6-6-8---8------|
G|------------|---------------|--------------|----------------|
D|------------|---------------|--------------|----------------|
A|------------|---------------|--------------|----------------|
D|------------|---------------|--------------|----------------|


e|-9--8--6----|-------8-------|-------6------|----------------|
B|----------8-|-8-8-6---8-----|-6---8---8----|-8-8-7-7-6-6-6-6|
G|------------|---------------|--------------|----------------|
D|------------|---------------|--------------|----------------|
A|------------|---------------|--------------|----------------|
D|------------|---------------|--------------|----------------|

e|-9--8--6----|-------8-------|-------6------|-------6--------|
B|----------8-|-8-8-6---8-----|-6---8---8----|-6-6-8---8------|
G|------------|---------------|--------------|----------------|
D|------------|---------------|--------------|----------------|
A|------------|---------------|--------------|----------------|
D|------------|---------------|--------------|----------------|

e|-9--8--6--3-|-1-------------|--------------|----------------|
B|------------|----3--2--1----|--------------|----------------|
G|------------|---------------|--3--0--------|----------------|
D|------------|---------------|--------------|--11/0----------|
A|------------|---------------|--------------|----------------|
D|------------|---------------|--------------|----------------|

Legend
/ = Slide
Suggest correction
Give kudos to tab author, rate the tab!
1 2 3 4 5
comments
print report bad tab
guest
You may want to rate the tab now too:
select rating
Wanna post a correction for this tab? Suggest correction