Oops, an error
Loading. Please wait.

Blood Sugar bass

version 3
version 3

Whole song

Interactive

247 views 1 this week
no commentswrite comment
1 2 3 4 5
3 more votes to show rating
add to favorites
×
Save as Personal and add changes to this tab that will be seen only by you. Learn more ›
×
You can save this tab as Personal to edit and correct it or add notes. All changes will be seen only by you. Learn more »
launch autoscroll
font size
0
reset
guitar tuner
edit
Autoscroll
slow
fast
+/-
esc
set tempo
stop
Author
Difficulty
credit to songsterr for sheet music/tabs.

Intro -
G|----------------|------------------|-----------------|------------------|
D|----------------|------------------|-----------------|------------------|
A|----------------|------------------|-----------------|------------------|
E|-3~-----------4-|-3~-------1-11-11-|-3~------------4-|-3~-------1--11-1-|

G|----------------|------------------|---------------|------------------|
D|----------------|------------------|---------------|------------------|
A|----------------|------------------|---------------|------------------|
E|-3~-----------4-|-3~-------1-11-11-|-3----4-3----4-|-3-4-3-4-33333333-|

Riff -
G|----------------|----------------|----------------|----------------|
D|----------------|----------------|----------------|----------------|
A|----------------|----------------|----------------|----------------|
E|-3------------4-|-3------------1-|-3------------4-|-6------------1-|

G|----------------|----------------|
D|----------------|----------------|
A|----------------|----------------|
E|-3------------4-|-3------------1-|

Bridge - it comes straight after the riff so combine that last note of the riff with 
this first note of the bridge (it transitions into the 3 at the start of the bridge)
G|------------------|---------12121212121212--|
D|--555555555555555-|-55555555----------------|
A|------------------|-------------------------|
E|-3----------------|-------------------------|

Riff - X4
G|------------------|-----------------|
D|------------------|-----------------|
A|------------------|-----------------|
E|-3-33-33-3-33-36--|-3-33-33-3-33-31-|

Chorus -
G|------------------|------------------|------------------|-----------------|
D|------------------|------------------|------------------|-----------------|
A|------------------|------------------|------------------|-----------------|
E|-3333333344444444-|-6666666688888888-|-3333333344444444-|-6666666611111111|

G|------------------|------------------|------------------|-----------------|
D|------------------|------------------|------------------|-----------------|
A|------------------|------------------|------------------|-----------------|
E|-3333333344444444-|-6666666688888888-|-3333334433333344-|-3344334433333333|

Riff - X4 - added for convenience
G|------------------|-----------------|
D|------------------|-----------------|
A|------------------|-----------------|
E|-3-33-33-3-33-36--|-3-33-33-3-33-31-|

Chrous - added for convenience, though slightly different
G|------------------|------------------|------------------|-----------------|
D|------------------|------------------|------------------|-----------------|
A|------------------|------------------|------------------|-----------------|
E|-3333333344444444-|-6666666688888888-|-3333333344444444-|-6666666611111111|

G|------------------|------------------|------------------|-----------------|
D|------------------|------------------|------------------|-----------------|
A|------------------|------------------|------------------|-----------------|
E|-3333333344444444-|-6666666688888888-|-3333334433333344-|-334433443--3--3~|

Bridge - is just holding that ending note in the chorus for 8 bars

Breakdown - X16 - timing is kind of weird, not too bad though
G|------------------|
D|------------------|
A|------------------|
E|-13-33-33-3136--3-|

Riff - X4 - again added for convenience (gotta love auto-scroll)
G|------------------|-----------------|
D|------------------|-----------------|
A|------------------|-----------------|
E|-3-33-33-3-33-36--|-3-33-33-3-33-31-|

Chorus - i think you understand the point
G|------------------|------------------|------------------|-----------------|
D|------------------|------------------|------------------|-----------------|
A|------------------|------------------|------------------|-----------------|
E|-3333333344444444-|-6666666688888888-|-3333333344444444-|-6666666611111111|

G|------------------|------------------|------------------|-----------------|
D|------------------|------------------|------------------|-----------------|
A|------------------|------------------|------------------|-----------------|
E|-3333333344444444-|-6666666688888888-|-3333334433333344-|-3344334433333333|

Riff - X4 - only hold the last note on the last bar, then end with the last bar that i 
added                        end with this bar
G|------------------|------------------|--------|
D|------------------|------------------|--------|
A|------------------|------------------|--------|
E|-3-33-33-3-33-36--|-3-33-33-3-33-31~-|-(1)-3~-|

thats it, please rate.

            
            
Suggest correction
Creating personal tab
Creating personal tab
You can edit any tab online and save it as your Personal.

You can edit, replace or remove any tab part or add personal notes – all changes will be seen only by you.

Personal tabs can be accessed anytime from any device, even offline.
Learn more »
Give kudos to tab author, rate the tab!
1 2 3 4 5
comments
print report bad tab
guest
You may want to rate the tab now too:
select rating
Wanna post a correction for this tab? Suggest correction