Oops, an error
Loading. Please wait.

Crush Tab

version 1
version 1

Whole song

Interactive

25,524 views 15 this week
3 commentsread comments
1 2 3 4 5
x 10
add to favorites
launch autoscroll
font size
0
reset
how to read this tab
guitar tuner
Autoscroll
slow
fast
+/-
esc
set tempo
stop
Help us to improve Ultimate-Guitar.com Take our survey!
×
Author
Difficulty
intermediate
Title: Crush
Artist: Pendulum
Album: Immersion
Author: Scott Esplin (at) sky (dot) com
Date: 07-10-10 / 08-10-10
Time: Midnight!

My first tab attempt ever!!!!
Thanks to crackerjam's bass.
Love the song, so just had to try and do it justice. Have fun!


Intro lick, mini-sweep the 1st bit, mini-barre at 9th fret for the 2nd?!

E|-----10--9-----------------------|-----10--9--------------------|
B|-------------10------------------|------------------------------|
G|-----------------11--------------|-------------9---11-----------|  repeat
D|---------------------------------|------------------------------|
A|---------------------------------|------------------------------|
E|---------------------------------|------------------------------|


Verse Rhythm, etc

E|-------------------------------------------------|
B|-------------------------------------------------|
G|-------------------------------------------------|
D|-------------------------------------------------|
A|-4--4--4--4--4--4--4--4--4--4--4--4--4--4--4--4--|
E|-2--2--2--2--2--2--2--2--2--2--2--2--2--2--2--2--|

E|-------------------------------------------------|
B|-------------------------------------------------|
G|-------------------------------------------------|
D|-------------------------------------------------|
A|-4--4--4--4--4--4--4--4--4--4--4--4--4--4--4--4--|
E|-2--2--2--2--2--2--2--2--2--2--2--2--2--2--2--2--|

E|-------------------------------------------------|
B|-------------------------------------------------|
G|-------------------------------------------------|
D|-4--4--4--4--4--4--4--4--4--4--4--4--4--4--4--4--|
A|-2--2--2--2--2--2--2--2--2--2--2--2--2--2--2--2--|
E|-------------------------------------------------|

E|-------------------------------------------------|
B|-------------------------------------------------|
G|-------------------------------------------------|
D|-7--7--7--7--7--7--7--7--------------------------|
A|-5--5--5--5--5--5--5--5--2--2--2--2--2--2--2--2--|
E|-------------------------0--0--0--0--0--0--0--0--|


Chorus lick, tricky on a guitar! See if you can find an easier way!
Again mini-barre at 9th, 3rd finger for 11th fret, stretch pinkie to 14th!

E|---------14----------------------|          |---------14----------------------|
B|-----------------12--10--9---10--|          |-----------------12--10--9-------|
G|-----11------11------------------| repeat   |-----11------11--------------9---|
D|---------------------------------|          |---------------------------------|
A|---------------------------------|          |---------------------------------|
E|---------------------------------|          |---------------------------------|


Chorus Rhythm

E|-------------------------------------------------|
B|-------------------------------------------------|
G|-------------------------------------------------|
D|-7--7--7--7--7--7--7--7--------------------------|
A|-5--5--5--5--5--5--5--5--2--2--2--2--2--2--2--2--|
E|-------------------------0--0--0--0--0--0--0--0--|


E|-------------------------------------------------|
B|-------------------------------------------------|
G|-------------------------------------------------|
D|-------------------------------------------------|
A|-4--4--4--4--4--4--4--4--2--2--2--2--2--2--2--2--|
E|-2--2--2--2--2--2--2--2--0--0--0--0--0--0--0--0--|


Acoustic Strum: D, E, F#minor, A

E|-2------|--------|-2------|--------|
B|-3------|--------|-2------|-2------|
G|-2------|-1------|-2------|-2------|
D|--------|-2------|-4------|-2------|
A|--------|-2------|-4------|--------|
E|--------|--------|-2------|--------|

Suggest correction
comments
print report bad tab
3 comments total.
0 reply
corruption270 10 Dec 01, 2010 06:39 AM

Great, thanks for posting this!

0 reply
corruption270 10 Dec 11, 2010 08:08 AM

Also, just as a tip, I find that playing 4-0 instead of one 4-2 when the bass seems to sound cool

0 reply
Nattack_TGD 32 Jan 09, 2011 06:04 PM

On the main riff there's more notes in it, like this:

E|---------------------------------|
B|---------------------------------|
G|---------------------------------|
D|-4--4--4--4--2-4-4--4--4--4--2-4-|
A|-4--4--4--4------4--4--4--4------|
E|-2--2--2--2------2--2--2--2------|

In the intro, if you bend the chord slightly with your fingers as you play you can get it to sound more like the song.

guest
You may want to rate the tab now too:
select rating
Wanna post a correction for this tab? Suggest correction