Oops, an error
Loading. Please wait.

Fasten Your Seatbelt Tab

version 1
version 1

Solo

Whole song

Interactive

661 views 1 this week
no commentswrite comment
1 2 3 4 5
please rate
add to favorites
launch autoscroll
font size
0
reset
how to read this tab
guitar tuner
Autoscroll
slow
fast
+/-
esc
set tempo
stop
Help us to improve Ultimate-Guitar.com Take our survey!
×
Contributor
Difficulty
novice
This is tabbed by ear but it sounds correct, enjoy!

Main Riff

|-------------------------------------------------------|
|-------------------------------------------------------|
|-------------------------------------------------------|
|----5-7-8-5-2-----------------5-7-8-5-2--0--0--3--4--5-|
|---------------5--5--1--0------------------------------|
|---------------------------3---------------------------|

|-------------------------------------------------------|
|-------------------------------------------------------|
|-------------------------------------------------------|
|----5-7-8-5-2-----------------5-7-8-5-2----------------|
|---------------5--5--1--0----------------0--0--3-------|
|---------------------------3---------------------------|

|-------------------------------------------------------|
|-------------------------------------------------------|
|-------------------------------------------------------|
|----5-7-8-5-2-----------------5-7-8-5-2--0--0--3--4--5-|
|---------------5--5--1--0------------------------------|
|---------------------------3---------------------------|

|-------------------------------------------------------|
|-------------------------------------------------------|
|-------------------------------------------------------|
|----5-7-8-5-2-----------------5-7-8-5-2--5--5--5/17----|
|---------------5--5--1--0------------------------------|
|---------------------------3---------------------------|


     Legend:

     / = Slide
comments
We did not receive enough feedback on this tab! Please rate:
print report bad tab
1 2 3 4 5
I want to post or [tab]
guest
You may want to rate the tab now too:
select rating
Please do not post tabs as comments. Select "correction" instead!