Oops, an error
Loading. Please wait.

Fasten Your Seatbelt Tab

version 1
version 1

Whole song

Interactive

10,433 views 6 this week
no commentswrite comment
1 2 3 4 5
excellent!
x 4
add to favorites
launch autoscroll
font size
0
reset
how to read this tab
guitar tuner
Autoscroll
slow
fast
+/-
esc
set tempo
stop
Help us to improve Ultimate-Guitar.com Take our survey!
×
This is my first tab so be patient with it if you dissagree with any part . ive put the 
for it as well. thanks, enjoy!

normal tuning

H= HAMMER ON
S= SLIDE
V= VIBRATO
B= BEND

INTRO    {USE REVERB AND DISTORTION FOR A BETTER SOUND}


|----3-1-0-3-1-3-1-3-3-5-3-5-1-3-1-3-1-3|
|---------------------------------------|
|---------------------------------------| X 2
|---------------------------------------|
|---------------------------------------|
|---------------------------------------|

ALTERNATIVELY PLAY


|---------------------------------------|
|----8-6-5-6-8-6-8-6-8-10-8-10-8-6-8-6-8|
|---------------------------------------| X 2
|---------------------------------------|
|---------------------------------------|
|---------------------------------------|


RIFT1 INTRO

|------------|
|------------|
|------------|
|----5-5-5-5-|
|------------|
|------------|

RIFT 1               RIFT 1              RIFT 1 2ND
            H V     VARIATION    H V     VARIATION
|--------------|    |---------------|    |--------------|
|--------------|    |---------------|    |--------------|
|----------3---|    |----------3----|    |----------3-0-|
|----5-5-7---5-|    |----5-5-7---5-0|    |----5-5-7----0|
|-------------5|    |---------------|    |--------------|
|--------------|    |---------------|    |--------------|


PART 2 OF RIFT 1    PART 2 VARIATION     PART 2 2ND VARIATION
          H V                VH V
|------------|      |------------|       |------------|
|------------|      |------------|       |------------|
|------------|      |------------|       |------------|
|------------|      |------------|       |------------|
|----4-4-3-1-|      |----4-4-3---|       |----4-4-3-0-|
|-----------3|      |---------5-3|       |-----------3|

ENDING TO RIFT 1    ENDING TO RIFT 1 CONTIUED

|-----------|      |-------------------------------------|
|-----------|      |-------------------------------------|
|-----------|      |------------------3------------3-5\12|
|--------3-5|      |---------------5-7--5------3-5-------|
|----4-5----|      |----4-4-1------------5--4-5----------|
|-----------|      |----------5--3-----------------------|

RIFT 2
                        H      P          H       H   P H      P H
|--------------------------------------------------------------------------|
|--------------------------------------------------------------------------|
|-----------3----------------------------------------------------3-5-3-6-7-|
|---5-3-5-7---5---------------------------------4-5------------------------|
|---------------5--1-5-4----------1-1-1-1-4-5-3---------1--1-4-5-----------|
|------------------------1-3--3-5-------------------3-5--------------------|
 H  P  H  P  H  P  H
---------------------|
---------------------|
-10-12-10-12-10-12-12|
---------------------|
---------------------|
---------------------|

RIFT 3

|--------------------------------|
|--------------------------------|
|--------------------------------|
|-------------66666---6-555---333| X 4
|----55555----44444---4-333---111|
|----33333-----------------------|

RIFT 3 ALTERNATIVE  [ I MEANS FRET 11 !] [ 1 MEANS FRET 10 !]

|--------------------------------|
|--------------------------------|
|--------------------------------|
|--------------------------------| X 4
|----55555----IIIII---I-111---888|
|----33333----99999---9-888---666|

 THATS EVERYTHING THATS IN THE SONG, ALTHOUGH I COULD NOT WORK OUT THE ORDER IN WHICH 
RIFTS ARE PLAYED AFTER RIFT 3, BUT I PROMESS YOU THAT ETHRTHINGS THERE AND THAT I DID IT 
EAR. CHOOSE THE WAY YOU LIKE TO PLAY IT OUT OF ALLTHE ALTERNATIVES.

TABBED BY CALLUM MACDONALD
Suggest correction
comments
print report bad tab
guest
You may want to rate the tab now too:
select rating
Wanna post a correction for this tab? Suggest correction