Oops, an error
Loading. Please wait.

Propane Nightmares Bass

version 1
version 1

Whole song

Interactive

31,095 views 15 this week
9 commentsread comments
1 2 3 4 5
x 30
add to favorites
launch autoscroll
font size
0
reset
guitar tuner
Autoscroll
slow
fast
+/-
esc
set tempo
stop
Author
Sweet song. pritty easy and fun to play. Some of the notes are played 
for longer. So play as many notes when each note is being plyed, cant 
fit in the space provided. any bumb notes comment please :D A.J

Normal Tuning

intro (0.22)
|---------------------------------------------|
|555555555------------------------------------| 
|----------55555555-66666666-11111111-55555555| x2
|---------------------------------------------|

|------------------------------------|----------------------------------|
|------------------------------------|----------------------------------|
|66666666-11111111-55555555----------|66666666-11111111-5555555555555555| x2
|---------------------------33333333-|----------------------------------|

Main Riff
|-----------------------------------------------------------------|
|-----------3-2-----------------------------3-2-------------------|
|--------------------------1-3-1----------------111111111-33333333| x2
|3-5-6--3-6-----3-5-6--3-6-------3-5-6--3-6-----------------------|

verse
|-----------------------|    |--------------------|
|-----------------------|    |--------------------|
|-----------------------| x3 |-111111111-33333333-| Both Riffs x2
|-3-3-3-3-3-3-3-3-1-1-1-|    |--------------------|

Chorus
|-------------------------------------|
|-------------------33333333----------|
|----------66666666----------33333333-| x3
|-33333333----------------------------|

|-------------------------------------|
|-------------------33333333-66666666-|
|----------66666666-------------------|
|-33333333----------------------------|

Main Riff
|-----------------------------------------------------------------|
|-----------3-2-----------------------------3-2-------------------|
|--------------------------1-3-1----------------111111111-33333333| x2
|3-5-6--3-6-----3-5-6--3-6-------3-5-6--3-6-----------------------|

verse
|-----------------------|    |--------------------|
|-----------------------|    |--------------------|
|-----------------------| x3 |-111111111-33333333-| Both Riffs x2
|-3-3-3-3-3-3-3-3-1-1-1-|    |--------------------|

Chorus
|-------------------------------------|
|-------------------33333333----------|
|----------66666666----------33333333-| x3
|-33333333----------------------------|

|----------------------------------------|
|-------------------33333333-6666666--5~-|
|----------66666666----------------------|
|-33333333-------------------------------|
 
Brake : Bridge

interlude (3.40)
|------------------------------------|----------------------------------|
|------------------------------------|----------------------------------|
|66666666-11111111-55555555----------|66666666-11111111-5555555555555555| x2
|---------------------------33333333-|----------------------------------|

outro riff
|-------------------------------------|
|-------------------------------------|
|-------------------33333333-11111111-| x7
|-33333333-11111111-------------------|

|-------------------------------------|
|-------------------------------------|
|-------------------33333333333333333-|
|-33333333-11111111-------------------|

|-------------------------------------------------------------------|
|-----------3-2-----------------------------3-2---------------------|
|--------------------------1-3-1---------------------------1-3-1----| x2
|3-5-6--3-6-----3-5-6--3-6-------3-5-6--3-6-----3-5-6--3-6-------3~-|

And thats it. Have fun playing! anything that is wrong plaese comment
A.J ;)


Suggest correction
comments
print report bad tab
9 comments total. Showing first comments.
+2 reply
csc501 487 May 18, 2008 04:52 AM

Seems pretty accurate to me, one chnage though:

Main Riff
|-----------------------------------------------------------------|
|-----------3-2-----------------------------3-2-------------------|
|----------------------------3-1----------------111111111-33333333|
|3-5-6--3-6-----3-5-6--3-6-3-----3-5-6--3-6-----------------------|

Pretty sure it isn't 1-3-1 tbh. - fairly minor admittedly.

+1 reply
MILLWALLMAN 10 Jun 03, 2008 11:03 AM

actualy change from above
|-----------------------------------------------------------------|
|-----------3-2-----------------------------3-2-------------------|
|----------------------------3--1---------------111111111-33333333|
|3-5-6--3-6-----3-5-6--3-6-5-----3-5-6--3-6-----------------------|

0 reply
MILLWALLMAN 10 Jun 03, 2008 11:04 AM

still 5* tho qaulity tab gd job apart frm that 1 mistake

guest
You may want to rate the tab now too:
select rating
Wanna post a correction for this tab? Suggest correction