Oops, an error
Loading. Please wait.

Propane Nightmares Bass Tab

version 2
version 2

Whole song

Interactive

4,344 views 9 this week
1 commentread comment
1 2 3 4 5
accurate
x 1
add to favorites
launch autoscroll
font size
0
reset
guitar tuner
Tab Pro tools
  • play this tab
  • loop segment
  • change instrument
  • show fretboard
  • metronome
Autoscroll
slow
fast
+/-
esc
set tempo
stop
Difficulty
intermediate
Propane nightmares bass tab
By Will9444555
E-A-D-G-B-E
This version is adapted so the chorus can be played fingered rather
than with a pick as Gareth plays it but if you want look cool I will
put the actual method he uses at the end!

Intro x 2


Bridge
|-----------------------------------|--------------------------------|
|-----------------------------------|--------------------------------| x2
|---66666666--------55555555--------|66666666--------5555555555555555|
|-----------66666666--------33333333|--------66666666----------------|


Chorus
|------------------------------------|
|---------------32-------------------| x2
|-----01------0-------01----1---3----|
|--3-------3--------3-----3---3---3--|


Verse
|-------------------------------------------------------------------------------------|
|-------------------------------------------------------------------------------------|
|---------------------------------------------1111111133333333------------------------|
|--3333333333333333333333333333333333333333333----------------------------------------|



|-------------------------------------------------------------------------------------|
|-------------------------------------------------------------------------------------|
|---------------------------------------------1111111133333333------------------------|
|--3333333333333333333333333333333333333333333----------------------------------------|


Chorus
|------------------------------------|
|---------------32-------------------| x2
|-----01------0-------01----1---3----|
|--3-------3--------3-----3---3---3--|



Verse
|-------------------------------------------------------------------------------------|
|-------------------------------------------------------------------------------------|
|---------------------------------------------1111111133333333------------------------|
|--3333333333333333333333333333333333333333333----------------------------------------|



|-------------------------------------------------------------------------------------|
|-------------------------------------------------------------------------------------|
|---------------------------------------------1111111133333333------------------------|
|--3333333333333333333333333333333333333333333----------------------------------------|


Chorus
|------------------------------------|
|---------------32-------------------| x2
|-----01------0-------01----1---3----|
|--3-------3--------3-----3---3---3--|



Break down - no bass
Guitar 'In a trail of fire' (This is only in the brixton live version but it 
sounds cool so I put it in)


Bridge
|-----------------------------------|--------------------------------|
|-----------------------------------|--------------------------------| x2
|---66666666--------55555555--------|66666666--------5555555555555555|
|-----------66666666--------33333333|--------66666666----------------|



2nd Bridge


|------------|
|------------| x4
|------------|
|666655553333|

Last time:
|------------|
|------------|
|--------5555|
|66665555----|


THEN!
Chorus x4 - recorded version
       x8 - live version
 *NOTE Ending
(Just because it sounds cool, if you do not like it just on the G (Fret 3 on E string)
and play the D (Fret 5 on A String)

|------------------------------------|---------------|
|---------------32-------------------|---------------|
|-----01------0-------01----1---3--5-|---------------|
|--3-------3--------3-----3---3------|3~~~~~~~~~~~~~~|


Oh yeah and I nearly forgot here are all the different ways of playing the chorus!

1st way you can play the chorus:

|------------------------------------|
|---------------32-------------------|
|------------------------------------|
|--3--56---3--5-----3-56--3--5-3-8-3-|


|------------------------------------|
|------------------------------------|
|---------------87-------------------|
|--3--56---3--5-----3-56--3--5-3-8-3-|

At Lastly the Last Fret 8 on E can be 3 on A (Just incase it interests you)
comments
We did not receive enough feedback on this tab! Please rate:
print report bad tab
1 2 3 4 5
1 comment total.
0 reply
Craig-Bass1995 wrote on August 22 2011, 05:20 pm

This is almost spot on. The only thing I will suggest is that the chorus is actually played like this:

Chorus
|------------------------------------|
|---------------32-------------------|
|-----01------1-------01----1---3-1--|
|--3-------3--------3-----3---3------|

These are just minor changes though. Other than that, it sounds good. :)

I want to post or [tab]
guest
You may want to rate the tab now too:
select rating
Please do not post tabs as comments. Select "correction" instead!