Oops, an error
Loading. Please wait.

Propane Nightmares Tab

version 3
version 3

Whole song

Interactive

31,735 views 3 this week
6 commentsread comments
1 2 3 4 5
accurate
x 11
add to favorites
launch autoscroll
font size
0
reset
how to read this tab
guitar tuner
Tab Pro tools
  • play this tab
  • loop segment
  • change instrument
  • show fretboard
  • metronome
×
Best way to learn
"Propane Nightmares"
Autoscroll
slow
fast
+/-
esc
set tempo
stop
Contributor
Capo
3rd fret
---------------------------------------------------------------------
                    PROPANE NIGHTMARES - PENDULUM
---------------------------------------------------------------------

In Silico – 2008

Tabbed by Eliot Ardrey

Guitar 1 – Standard
Guitar 2 – Standard (Capo 3rd Fret)

This can easily be adapted and played to the real version, but works well with two acoustics.

Intro

Guitar 1 x4

   Em         B               C        G         B
E|--------------------------------------------------------------------|
B|--------------------------------------------------------------------|
G|-------7-8--7---5-------------8--7-5-7------------------------------|
D|-5---8-------------7--------8------------8-5--10-8-7--8-7-----------|
A|--------------------------------------------------------------------|
E|--------------------------------------------------------------------|

Guitar 2 x4

Em  B  C  G  B


Em                      B         C
Something’s tearing me down, And down
       G                  B
Can’t help but feel it’s coming from you
          Em                  B        C
She’s a gunshot bride, With a trigger cries
        G                B
I just wonder what we’ve gotten ourselves into


Chorus

Guitar 1

   C        G        B      Em
E|---------------------------------------------|
B|---------------------------------------------|
G|--8-8-7-5---5-7-5----------------------------|
D|----------8-------8-7-8-7-5------------------|
A|---------------------------------------------|
E|---------------------------------------------|

     C   G       D    
E|---------------------------------------------|
B|---------------------------------------------|
G|---8-8-7-5---5-7-----------------------------|
D|-----------8---------------------------------|
A|---------------------------------------------|
E|---------------------------------------------|

Guitar 2

C     G               B              Em
In a trail of fire I know we will be free again
C       G             B
In the end we will be one
C     G                  B              Em
In a trail of fire I’ll burn before you bury me
C          G            B
Set your sights for the sun









Riff

Guitar 1 x2

    Em     G                 Em        Am      
E|-----------------------------------------------------------|
B|-----------------------------------------------------------|
G|-----------------8-7---------------------------------------|
D|--5-7-8--5--8--------------5-7-8-----5-8-5-10-8------------|
A|-----------------------------------------------------------|
E|-----------------------------------------------------------|

    Em     G                 C         B
E|-----------------------------------------------------------|
B|-----------------------------------------------------------|
G|-----------------8-7---------------------------------------|
D|--5-7-8--5--8--------------8-8-8-10--7-7-7--7--------------|
A|-----------------------------------------------------------|
E|-----------------------------------------------------------|


Guitar 2  x2

Em  G  Em  Am  Em  G  C  B


Verse

Guitar 1  x2

    Em      C         D               Am               Em      D   
e|--------------------------------------------------------------------|
B|----------6-8-------10-8-6---6-8----10-8-6----6-8-------------------|
G|--7-7-7-7-----7------------7-----7---------7------7--7-7-7-8-5-5-5-5|
D|--------------------------------------------------------------------|
A|--------------------------------------------------------------------|
E|--------------------------------------------------------------------|

Guitar 2  x2

Em
Mind is willing
C
Soul remains
D
This woman cannot be saved
Am                      Em   D
From the drawn into the fire
Em
Mind is willing
C
Soul remains
D
This woman cannot be saved
Am                       Em    D
From the drawn into the fire  (Any danger)

            Em     C    D    Am
Bring it on home                  x4

Riff

Guitar 1 x2

    Em     G                 Em        Am      
E|--------------------------------------------------------------------|
B|--------------------------------------------------------------------|
G|-----------------8-7------------------------------------------------|
D|--5-7-8--5--8--------------5-7-8-----5-8-5-10-8---------------------|
A|--------------------------------------------------------------------|
E|--------------------------------------------------------------------|

    Em     G                 C         B
E|--------------------------------------------------------------------|
B|--------------------------------------------------------------------|
G|-----------------8-7------------------------------------------------|
D|--5-7-8--5--8--------------8-8-8-10--7-7-7--7-----------------------|
A|--------------------------------------------------------------------|
E|--------------------------------------------------------------------|


Guitar 2  x2

Em  G  Em  Am  Em  G  C  B



Verse

Guitar 1  x2

    Em      C         D               Am               Em      D   
e|--------------------------------------------------------------------|
B|----------6-8-------10-8-6---6-8----10-8-6----6-8-------------------|
G|--7-7-7-7-----7------------7-----7---------7------7--7-7-7-8-5-5-5-5|
D|--------------------------------------------------------------------|
A|--------------------------------------------------------------------|
E|--------------------------------------------------------------------|

Guitar 2  x2

Em
Much to weak to jump yourself
C
Heal the wounds or crack the shell
D                        Em    D
Lift yourself from once below
Em
Much to weak to jump yourself
C
Heal the wounds or crack the shell
D                         Em   
Lift yourself from once below
            D
Praise the anger

            Em     C    D    Am
Bring it on home                  x4


Interlude

(single strums)

Guitar 2

C  Am  Em / C  D  Em / C  Am  Em / C  D  E


Chorus

Guitar 1

   C        G        B      Em
E|--------------------------------------------------------------------|
B|--------------------------------------------------------------------|
G|--8-8-7-5---5-7-5---------------------------------------------------|
D|----------8-------8-7-8-7-5-----------------------------------------|
A|--------------------------------------------------------------------|
E|--------------------------------------------------------------------|

     C   G       D    
E|--------------------------------------------------------------------|
B|--------------------------------------------------------------------|
G|---8-8-7-5---5-7----------------------------------------------------|
D|-----------8--------------------------------------------------------|
A|--------------------------------------------------------------------|
E|--------------------------------------------------------------------|

Guitar 2

C     G               B              Em
In a trail of fire I know we will be free again
C       G             B
In the end we will be one
C     G                  B              Em
In a trail of fire I’ll burn before you bury me
C          G            B
Set your sights for the sun


Interlude 2

Guitar 2

Em  D  Am  Em   x8


Outro

Guitar 1 x2

    Em     G                 Em        Am      
E|--------------------------------------------------------------------|
B|--------------------------------------------------------------------|
G|-----------------8-7------------------------------------------------|   x3
D|--5-7-8--5--8--------------5-7-8-----5-8-5-10-8---------------------|
A|--------------------------------------------------------------------|
E|--------------------------------------------------------------------|

Then….

    Em     G                 Em        Am           Em
E|--------------------------------------------------------------------|
B|--------------------------------------------------------------------|
G|-----------------8-7------------------------------------------------|   
D|--5-7-8--5--8--------------5-7-8-----5-8-5-10-8---5-----------------|
A|--------------------------------------------------------------------|
E|--------------------------------------------------------------------|

Guitar 2


Em  G  Em  Am  Em  G  Em  G    x4


Final chord Em......I think.

comments
print report bad tab
6 comments total. Showing first comments.
0 reply
Fozza2008 wrote on March 5 2009, 02:47 pm

good tab :)
i don't know if im being stupid but the main riff sounds a bit off at the end.
apart from that great tab :)

0 reply
TheGNRfreak wrote on May 3 2009, 10:26 pm

I'm tired of people who don't know how to transpose a capo. The shords are not Em B C G B or w/e, they would be Gm D Eb Bb and D.

+3 reply
bill-luvs-vr wrote on May 26 2009, 03:22 pm

It should be

Em G Em Am
E|--------------------------------------------------------------------|
B|--------------------------------------------------------------------|
G|-----------------10-9------------------------------------------------|
D|--5-7-8--5--8--------------5-7-8-----5-8-5-10-8---------------------|
A|--------------------------------------------------------------------|
E|--------------------------------------------------------------------|

Em G C B
E|--------------------------------------------------------------------|
B|--------------------------------------------------------------------|
G|-----------------10-9------------------------------------------------|
D|--5-7-8--5--8--------------8-8-8-10--7-7-7--7-----------------------|
A|--------------------------------------------------------------------|
E|--------------------------------------------------------------------|

I want to post or [tab]
guest
You may want to rate the tab now too:
select rating
Please do not post tabs as comments. Select "correction" instead!