Oops, an error
Loading. Please wait.

Propane Nightmares Tab

version 5
version 5

Whole song

Interactive

424 views 1 this week
no commentswrite comment
1 2 3 4 5
please rate
add to favorites
launch autoscroll
font size
0
reset
how to read this tab
guitar tuner
Autoscroll
slow
fast
+/-
esc
set tempo
stop
Help us to improve Ultimate-Guitar.com Take our survey!
×
Author
Difficulty
intermediate
-------------------------------------------------------------------------------
                             Propane Nightmares - Pendulum
-------------------------------------------------------------------------------
Tabbed by: Phizzo
E-mail: phizzie@hotmail.de

Notes: The song is not quite finished. I'll update it when I have time.

Please click this link, if you want to support me: http://j.gs/1TC6 ! Only 5s of your time
-------------------------------------------------------------------------------

Tuning: Standard

Intro:
======

e|-3-----------5------6------3------6---------------------------------------------|
B|-3-----------7------8------3------8---------------------------------------------|
G|-3-----------7------8------3------8---------------------------------------------|
D|-5-----------7------8------3------8---------------------------------------------| x2
A|-5-----------5------6------1------6---------------------------------------------|
E|-3------------------------------------------------------------------------------|

Part 1 (1 strum each) [clean]:
======

      Some...me down..down..can't..coming for 
e|-3-----------5------6------3------5---------------------------------------------|
B|-3-----------7------8------3------7---------------------------------------------|
G|-3-----------7------8------3------7---------------------------------------------|
D|-5-----------7------8------3------7---------------------------------------------|
A|-5-----------5------6------1------5---------------------------------------------|
E|-3------------------------------------------------------------------------------|

   You...    bride...cries..wonder..gotten ourselves into
e|-3-----------5------6------3------5---------------------------------------------|
B|-3-----------7------8------3------7---------------------------------------------|
G|-3-----------7------8------3------7---------------------------------------------|
D|-5-----------7------8------3------7---------------------------------------------|
A|-5-----------5------6------1------5---------------------------------------------|
E|-3------------------------------------------------------------------------------|

Part 2 (1/8 notes strumming):
======

     In the trail.. know... free.. .in the end...one
e|---------------------------------------------------------------------------|
B|---------------------------------------------------------------------------|
G|-8----------------7---------------8-------------7------7-------------------|
D|-8--------8-------7-------5-------8-------8-----7------7-------------------|
A|-6--------8-------5-------5-------6-------8-----5------5-------------------|
E|----------6---------------3---------------6--------------------------------|

     In the trail.. burn... bury .. .set ...signs.sun   
e|---------------------------------------------------------------------------|
B|---------------------------------------------------------------------------|
G|-8----------------7---------------8-------------7------7-------------------|
D|-8--------8-------7-------5-------8-------8-----7------7-------------------|
A|-6--------8-------5-------5-------6-------8-----5------5-------------------|
E|----------6---------------3---------------6--------------------------------|


Part 3
======
                                      
e|---------------------------------------------------------------------------|
B|---------------------------------------------------------------------------|
G|---------------------------------------------------------------------------| x2
D|-------------3-2----------------------------------3-2---8---8-10-----------|
A|--------------------------------------------------------8---8-10-----------|
E|-3-5-6-3-3-6-------3-5-6-3-3-6-3-8-6--3-5-6-3-3-6-------6---6-8------------|

Part 4 (1st 1/8 note palm mute, then 1 strum)
======

     Mind is willing...the fire
e|---------------------------------------------------------------------------|
B|---------------------------------------------------------------------------|
G|---------------------------------------------------------------------------|
D|-5------------------------8-------10---------------------------------------| 
A|-5------------------------8-------10---------------------------------------|
E|-3------------------------6-------8----------------------------------------|

     Mind is willing...the fire  anything to bring it on....
e|---------------------------------------------------------------------------|
B|---------------------------------------------------------------------------|
G|---------------------------------------------------------------------------|
D|-5------------------------8-------10---------------------------------------| 
A|-5------------------------8-------10---------------------------------------|
E|-3------------------------6-------8----------------------------------------|


Part 5
======
  (1) Home               Bring it on(1)
e|---------------------------------------------------------------------------|
B|---------------------------------------------------------------------------|
G|--------8-----------5------------------------------------------------------| x3
D|-5------8-----3-----5------------------------------------------------------|
A|-5------6-----3-----3------------------------------------------------------|
E|-3------------1------------------------------------------------------------|

  (1) Home               
e|---------------------------------------------------------------------------|
B|---------------------------------------------------------------------------|
G|--------8------------------------------------------------------------------|
D|-5------8-----3-----6------------------------------------------------------|
A|-5------6-----3-----6------------------------------------------------------|
E|-3------------1-----4------------------------------------------------------|

Part 3
======
                                      
Part 4
======

Part 5
======

Part 6
======

e|---------------------------------------------------------------------------|
B|---------------------------------------------------------------------------|
G|---------------------------------------------------------------------------| x2
D|---------------------------------------------------------------------------|
A|--6---5-3-5-----6---3------------------------------------------------------|
E|----------------------6-3--------------------------------------------------|

Part 2
======

Part 7
======

e|---------------------------------------------------------------------------|
B|---------------------------------------------------------------------------|
G|----------------5------3---------------------------------------------------|
D|-5-------3------5------3---------------------------------------------------| x8
A|-5-------3------3------1---------------------------------------------------|
E|-3-------1-----------------------------------------------------------------|

Part 3
======

e|---------------------------------------------------------------------------|
B|---------------------------------------------------------------------------|
G|---------------------------------------------------------------------------|
D|---------------------------------------------------------------------------|
A|---------------------------------------------------------------------------|
E|---------------------------------------------------------------------------|



Please click this link, if you want to support me: http://j.gs/1TC6 ! Only 5s of your time

************************************

| /   slide up
| \   slide down
| h   hammer-on
| p   pull-off
| ~   vibrato
| +   harmonic
| x   Mute note
| b   Bend
| pb  Pre-bend
| br  Bend release
| pbr Pre-bend release
| brb Bend release bend

************************************

Please click this link, if you want to support me: http://j.gs/1TC6 ! Only 5s of your time
Suggest correction
What's this?
You can suggest a correction to this tab. Community and Mods will review your correction and vote to approve or reject it.
comments
We did not receive enough feedback on this tab! Please rate:
print report bad tab
1 2 3 4 5
guest
You may want to rate the tab now too:
select rating
Please do not post tabs as comments. Select "correction" instead!