Oops, an error
Loading. Please wait.

Tarantula Bass Tab

version 1
version 1

Whole song

20,287 views 18 this week
no commentswrite comment
1 2 3 4 5
excellent!
x 9
add to favorites
launch autoscroll
font size
0
reset
guitar tuner
Autoscroll
slow
fast
+/-
esc
set tempo
stop
Help us to improve Ultimate-Guitar.com Take our survey!
×
Author
Heres another pendulum tune! sorry if i missed something out
anywayz have fun.

tuning
G|
D|
A|
D|

intro bass kicks in at 0:22
|----------|---------|-------------2---|-------|----------|---------|
|----------|---------|---------2-4---4-|-------|----------|---------|
|---0-2--0-|---0-----|---0-2-4---------|-0-----|---0-2--0-|---0-----|
|-4--------|-4---2-4-|-4---------------|---2-4-|-4--------|-4---2-4-|

verse                                x7
|-------------------|------------------|
|-------------------|------------------|
|-----------------3-|-5--------------3-| 
|-0----0--0--0-3----|----0--0--0--3----|

interlude
|-------------------------------------------|
|-------------------------------------------|
|-5-5-5-5----4-4-4-4----3-3-3-3----1-1--0-0-|
|-------------------------------------------|

chorus
|----------------------------|
|----------------------------|
|------------1----------1--3-| x3
|-5-5-4-3-3-----5-5-4-3------|

verse                                x7
|-------------------|------------------|
|-------------------|------------------|
|-----------------3-|-5--------------3-| 
|-0----0--0--0-3----|----0--0--0--3----|

interlude
|-------------------------------------------|
|-------------------------------------------|
|-5-5-5-5----4-4-4-4----3-3-3-3----1-1--0-0-|
|-------------------------------------------|

verse
|------------------|
|------------------|
|-5--------------3-| x8
|----0--0--0--3----|

interlude
|-------------------------------------------|
|-------------------------------------------|
|-5-5-5-5----4-4-4-4----3-3-3-3----1-1--0-0-|
|-------------------------------------------|

chorus
|----------------------------|
|----------------------------|
|------------1----------1--3-| x3
|-5-5-4-3-3-----5-5-4-3------|

bridge (optional)
|-----------------|-----------------|
|-----------------|-----------------| x8 It veries at 
|-----------------|-----------------|    times with pauses
|--0--0--0--3-2-2-|--0--0--0--3-6-5-|

verse                                x7
|-------------------|------------------|
|-------------------|------------------|
|-----------------3-|-5--------------3-| 
|-0----0--0--0-3----|----0--0--0--3----|

interlude
|-------------------------------------------|
|-------------------------------------------|
|-5-5-5-5----4-4-4-4----3-3-3-3----1-1--0-0-|
|-------------------------------------------|

chorus
|----------------------------|
|----------------------------|
|------------1----------1--3-| x3
|-5-5-4-3-3-----5-5-4-3------|

verse                                x7
|-------------------|------------------|
|-------------------|------------------|
|-----------------3-|-5--------------3-| 
|-0----0--0--0-3----|----0--0--0--3----|

interlude
|-------------------------------------------|
|-------------------------------------------|
|-5-5-5-5----4-4-4-4----3-3-3-3----1-1--0-0-|
|-------------------------------------------|

chorus
|----------------------------|
|----------------------------|
|------------1----------1--3-| x3
|-5-5-4-3-3-----5-5-4-3------|

anywayz enjoy :D please rate 
Suggest correction
comments
print report bad tab
guest
You may want to rate the tab now too:
select rating
Wanna post a correction for this tab? Suggest correction