Oops, an error
Loading. Please wait.

Tarantula Bass Tab

version 2
version 2

Whole song

970 views 1 this week
no commentswrite comment
1 2 3 4 5
please rate
add to favorites
launch autoscroll
font size
0
reset
guitar tuner
Tab Pro tools
  • play this tab
  • loop segment
  • change instrument
  • show fretboard
  • metronome
×
Best way to learn
"Tarantula"
Autoscroll
slow
fast
+/-
esc
set tempo
stop
Contributor
Difficulty
intermediate
-------------------------------------------------------------------------------
			     Tarantula - Pendulum
-------------------------------------------------------------------------------

Tabbed By : Y.Z (frenchfries)
e-mail:

Tuning: Standart

You have to start when the vocals and the beats!
Intro: TARANTULA Time for the massive...
G|------------------------------------------------------------------------------|
D|-------9----------------------------------------------------------------------|
A|---9------12--11--9------7---9------------------------------------------------|
E|------------------------------------------------------------------------------|
or
G|----------------------------------------------------------------------------------|
D|------9---------------------------------------------------------------------------|
A|--9-------12------9------7----9---------------------------------------------------|
E|----------------------------------------------------------------------------------|

G|-------------9—11---11/13---11----------------------------------------------|
D|------9--11-----------------------------------------------------------------|
A|---9------------------------------------------------------------------------|
E|----------------------------------------------------------------------------|

G|------------------------------------------------------------------------------|
D|-------9----------------------------------------------------------------------|
A|---9------12--11--9------7---9------------------------------------------------|
E|------------------------------------------------------------------------------|
Verse: 6x     Shotter, hitter, serialkiller......
G|---------------------------------------------------------------------------|
D|---------------------------------------------------------------------------|
A|---55555555-------------33333333-------------------------------------------|
E|-------------11111111------------------------------------------------------|
1x
G|---------------------------------------------------------------------------|
D|---------------------------------------------------------------------------|
A|-- -5-5-5-5----4-4-4-4----3-3-3-3----1-1--0-0------------------------------|
E|---------------------------------------------------------------------------|
Chorus : 3x  Tarantula time fort he massive…
G|---------------------------------------------------------------------------|
D|---------------------------------------------------------------------------|
A|-----------------------1---------------------------------------------------|
E|--3---3-3---2---1-1-1-1----------------------------------------------------|

G|------------------------------------------------------------------------------|
D|------------------------------------------------------------------------------|
A|-------------------1--3-------------------------------------------------------|
E|--3---3-3---2---1-------------------------------------------------------------|
After chorus 1 CUM FI GET SOME PART
G|------------------------------------------------------------------------------|
D|------------------------------------------------------------------------------|
A|------------------------------------------------------------------------------|
E|--3---3-3---2---1--0----------------------------------------------------------|

Break
G|------------------------------------------------------------------------------------|
D|------------------------------------------------------------------------------------|
A|-----5--5--5--5--5--5--5--5---------------------------------------------------------|
E|-------------------------1----4-----3-----------------------------------------------|

Verse: 6x
G|---------------------------------------------------------------------------|
D|---------------------------------------------------------------------------|
A|---55555555-------------33333333-------------------------------------------|
E|-------------11111111------------------------------------------------------|
1x
G|---------------------------------------------------------------------------|
D|---------------------------------------------------------------------------|
A|-- -5-5-5-5----4-4-4-4----3-3-3-3----1-1--0-0------------------------------|
E|---------------------------------------------------------------------------|
Chorus : 3x
G|---------------------------------------------------------------------------|
D|---------------------------------------------------------------------------|
A|-----------------------1---------------------------------------------------|
E|--3---3-3---2---1-1-1-1----------------------------------------------------|

G|------------------------------------------------------------------------------|
D|------------------------------------------------------------------------------|
A|-------------------1--3-------------------------------------------------------|
E|--3---3-3---2---1-------------------------------------------------------------|

Verse: 6x
G|---------------------------------------------------------------------------|
D|---------------------------------------------------------------------------|
A|---55555555-------------33333333-------------------------------------------|
E|-------------11111111------------------------------------------------------|
1x
G|---------------------------------------------------------------------------|
D|---------------------------------------------------------------------------|
A|-- -5-5-5-5----4-4-4-4----3-3-3-3----1-1--0-0------------------------------|
E|---------------------------------------------------------------------------|
Chorus : 3x
G|---------------------------------------------------------------------------|
D|---------------------------------------------------------------------------|
A|-----------------------1---------------------------------------------------|
E|--3---3-3---2---1-1-1-1----------------------------------------------------|

G|------------------------------------------------------------------------------|
D|------------------------------------------------------------------------------|
A|-------------------1--3-------------------------------------------------------|
E|--3---3-3---2---1-------------------------------------------------------------|

So I just tabbed it by ear and I certainly sure that at least 95% is right! :D

Enjoy

 | /  slide up
| \  slide down
| h  hammer-on
| p  pull-off
| ~  vibrato
| +  harmonic
| x  Mute note
===============================================================================
comments
We did not receive enough feedback on this tab! Please rate:
print report bad tab
1 2 3 4 5
I want to post or [tab]
guest
You may want to rate the tab now too:
select rating
Please do not post tabs as comments. Select "correction" instead!