Oops, an error
Loading. Please wait.

The Island Part 1 Bass Tab

version 1
version 1

Whole song

Interactive

2,703 views 3 this week
no commentswrite comment
1 2 3 4 5
2 more votes to show rating
add to favorites
launch autoscroll
font size
0
reset
guitar tuner
Autoscroll
slow
fast
+/-
esc
set tempo
stop
Help us to improve Ultimate-Guitar.com Take our survey!
×
Author
Difficulty
Tuning
intermediate
D A D G B E
Pendulum, The Island Part 1


Intro

-----     ---------------------------------|
-----     ---------------------------------|
--0-- x5  -0--0--0--0--0-0-0-0--00000000-0-|
-----     ---------------------------------|


Main Riff / Chorus

----------------------------------------------------------|
--------------------------0--2-3--5-------0--2-3--5-------|
--0-----3-----0-----3--2-------------0---------------0----|
-----3-----5-----3----------------------5---------------5-|

Verse

----------------------------------------|
----------------------------------------|
-------------------0-0-0-0--3-3-3-3-----| x8
-3-3-3-3--5-5-5-5-----------------------|

Chorus

----------------------------------------------------------|
--------------------------0--2-3--5-------0--2-3--5-------|
--0-----3-----0-----3--2-------------0---------------0----|
-----3-----5-----3----------------------5---------------5-|

Pre Verse (3:11)

-----------------|
-----------------|
-0-0-0-0-0-0-0-0-| x2
-----------------|

Verse

----------------------------------------|
----------------------------------------|
-------------------0-0-0-0--3-3-3-3-----| x8
-3-3-3-3--5-5-5-5-----------------------|

Chorus

----------------------------------------------------------|
--------------------------0--2-3--5-------0--2-3--5-------|
--0-----3-----0-----3--2-------------0---------------0----|
-----3-----5-----3----------------------5---------------5-|

Ending , Only drums play

Thanks for Reading

Track Length , 5 min 21 sec
Suggest correction
Give kudos to tab author, rate the tab!
1 2 3 4 5
comments
print report bad tab
guest
You may want to rate the tab now too:
select rating
Wanna post a correction for this tab? Suggest correction