Oops, an error
Loading. Please wait.

The Island Tab

12,176 views 27 this week
3 commentsread comments
1 2 3 4 5
accurate
x 5
add to favorites
launch autoscroll
font size
0
reset
how to read this tab
guitar tuner
Autoscroll
slow
fast
+/-
esc
set tempo
stop
Help us to improve Ultimate-Guitar.com Take our survey!
×
Contributor
jamessc 73
This is how I like to play it, you can play it lower or higher if you want...
Its in A minor btw if your wanting to jam etc....

Probably a few mistakes and there's a few parts im not sure about but hey?
also message or comment any corrections please, cheers.

0-0.30

this note is played occasionaly

e--
B--
G--
D--
A--
E-5 or

e--
B--
G--
D--
A-0
E--

then 0.30-0.46 (repeated)

e------------------------------   ---------------------|
B------------------------------   ---------------------|
G--------7---------------------   ----7----------------|
D-7--7-10-7------- (last one)->   7-10-7-7-7-7-7-7-7-7-|
A------------------------------   ---------------------|
E------------------------------   ---------------------|

0.46-1.16 (repeated main riff)

e ------------------------------------------|
B --------------8---------------------------|
G --------7-9-----10-9---9-10-9-7---7-9-7---|
D 7--7-10-----7--------7----------7-------7-|
A ------------------------------------------|
E ------------------------------------------|

1.16-1.31

e --------------------------------------------------------|
B --------------------------------------------------------|
G --------7-7h9-9------7-7h9-9------7-7h9-9----9-7--------|
D 7--7-10---------7-10---------7-10----------7-----10-9-7-|
A --------------------------------------------------------|
E --------------------------------------------------------|

e ----------------------------------------------------------------|
B ----------------------------------------------------------------|
G --------7-7h9-9------7-7h9-9------7-7h9-9-----7-7h9-9-7-9-7-9-7-|
D ---7-10---------7-10----------7------------7--------------------|
A ----------------------------------------------------------------|
E ----------------------------------------------------------------|

then play chords or nothing - for the vocals

F        G
You rise
               Am             C
In the rising sun
                F         G
The hidden passenger
                  Am         C
That I've been taking
           F          G
Close your eyes
              Am           G
Let's forget again
                F        G
As you drag me down
             Am       C
I will take you in
                      F
What are you waiting for?
            G           Am      C
Just surrender here tonight
                      F
What are you waiting for?
       G                Am      C
As we go towards the light
F              G                  Am
     When everything is said and done
                      C             F
Still looking for answers, if only one
          G                 Am
Turn my back, the edge has gone

*Till 2.33*

then play the main riff

2.34-2.48 (repeated main riff)

e ------------------------------------------|
B --------------8---------------------------|
G --------7-9-----10-9---9-10-9-7---7-9-7---|
D 7--7-10-----7--------7----------7-------7-|
A ------------------------------------------|
E ------------------------------------------|

2.48-3.02

e --------------------------------------------------------|
B --------------------------------------------------------|
G --------7-7h9-9------7-7h9-9------7-7h9-9----9-7--------|
D 7--7-10---------7-10---------7-10----------7-----10-9-7-|
A --------------------------------------------------------|
E --------------------------------------------------------|

e ----------------------------------------------------------------|
B ----------------------------------------------------------------|
G --------7-7h9-9------7-7h9-9------7-7h9-9-----7-7h9-9-7-9-7-9-7-|
D ---7-10---------7-10----------7------------7--------------------|
A ----------------------------------------------------------------|
E ----------------------------------------------------------------|


Then chords again
then main riff again
comments
print report bad tab
3 comments total.
0 reply
BakaNe_ 12 wrote on June 27 2013, 08:38 pm

e ------------------------------------------|
B --------------8---------------------------|
G --------7-9-----10-9---9-7--7----7-9------|
D 7--7-10-----7--------7----10--10-----10-7-|
A ------------------------------------------|
E ------------------------------------------|
e --------------------------------------------------------|
B --------------------------------------------------------|
G -------7-------------7--------------7---------9-7-------|
D 7-7-10--10-10---7-10--10-10----7-10--10-10--7----10-9-7-|
A --------------------------------------------------------|
E --------------------------------------------------------|
e ----------------------------------------------------------------|
B ----------------------------------------------------------------|
G --------7------------7------------------------------------------|
D ---7-10--10-10--7-10--10-10-----7-10---10-10-10-10-10-----------|
A ----------------------------------------------------------------|
E ----------------------------------------------------------------|
Try that for the main riff. Other than that, good job man. Good tab and a good song.

0 reply
BakaNe_ 12 wrote on June 27 2013, 08:40 pm

e ----------------------------------------------------------------|
B ----------------------------------------------------------------|
G --------7------------7---------------7--------------------------|
D ---7-10--10-10--7-10--10-10-----7-10---10-10-10-10-10-----------|
A ----------------------------------------------------------------|
E ----------------------------------------------------------------|
correcting the missing 7 from that 3rd staff

0 reply
connorwilson4499 109 wrote on August 3 2015, 04:09 pm

Think this is played on MIDI guitar but ye...

I want to post or [tab]
guest
You may want to rate the tab now too:
select rating
Please do not post tabs as comments. Select "correction" instead!