Oops, an error
Loading. Please wait.

The Other Side Tab

version 2
version 2

Whole song

384 views 1 this week
no commentswrite comment
1 2 3 4 5
please rate
add to favorites
launch autoscroll
font size
0
reset
how to read this tab
guitar tuner
Tab Pro tools
  • play this tab
  • loop segment
  • change instrument
  • show fretboard
  • metronome
×
Best way to learn
"The Other Side"
Autoscroll
slow
fast
+/-
esc
set tempo
stop
Contributor
Difficulty
intermediate
-----------------------------------------------------------------------------------------
				The other side - pendulum
					In silico
-----------------------------------------------------------------------------------------
Talkbox notes

Tabbed by:NanoMonkey123
Email: olliemc@blueyonder.co.uk
Standard tuning: e,B,G,D,A,E
_________________________________________________________________________________________
For the synth that controls the Talkbox use a sawtooth wave (with this shape: |/|)
and a short end square    __
                       ( |  |_| )
with a low cutoff for the recorded version and a high one for the live.
_________________________________________________________________________________________
Chorus:

   Come on down to the other side
e|-------------------------------|
B|-------------------------------|
G|---------5---------------------|
D|-3----6-------8--6----8-6--3---|
A|-------------------------------|
E|-------------------------------|

   Come with us through the gates of hell
e|---------------------------------------|
B|---------------------------------------|
G|-----------5---------------------------|
D|-3----6-------8-------6---8-----6--3---|
A|---------------------------------------|
E|---------------------------------------|

   Where we'll drag you from where you are to where you belong
e|------------------------------------------------------------|
B|-------------------------------------1----------------------|
G|-------------------------------------0----------------------|
D|-3----5-----6----6----5---3------1---1-----1-----3----5--2--|
A|-------------------------------------3---3------------------|
E|------------------------------------------------------------|
_________________________________________________________________________________________

(Verse is actual singing but with effects)
_________________________________________________________________________________________

Pre-Chorus  

 But I can’t sleep until this is doonne (done)
e|---------------------------------------|
B|-------6----------------------6--8-6---|
G|-6---8-------8-------5---8-----------8-|
D|-------------------6-------------------|
A|---------------------------------------|
E|---------------------------------------|

  They’re in my head
e|---------------------------------------|
B|-----------6---------------------------|
G|-6------8-----8------------------------|
D|---------------------------------------|
A|---------------------------------------|
E|---------------------------------------|

  They’re in my soul
e|---------------------------------------|
B|---------------------------------------|
G|-5------------5------------------------|
D|--------8--6---------------------------|
A|---------------------------------------|
E|---------------------------------------|

_________________________________________________________________________________________

Bridge

e|-8\6-|
B|-----|
G|-----|
D|-----|
A|-----|
E|-----|

   Through the gates of hell, We know you (down 2 octaves)
e|---------------------------------------|
B|---------------------------------------|
G|---------------------------------------|
D|-8-------6---8-----6--3-----6--8----3--|
A|---------------------------------------|
E|---------------------------------------|
   Down (normal octave)
e|-----|
B|-----|
G|-5\3-|
D|-----|
A|-----|
E|-----|
_________________________________________________________________________________________

Chorus (edited):

    down to the other side
e|-------------------------------|
B|-------------------------------|
G|--5----------------------------|
D|-------8--6---8-6---3----------|
A|-------------------------------|
E|-------------------------------|

   Come with us through the gates of hell
e|---------------------------------------|
B|---------------------------------------|
G|-----------5---------------------------|
D|-3----6-------8-------6---8-----6--3---|
A|---------------------------------------|
E|---------------------------------------|

   Where we'll drag you from where you are to where you belong
e|------------------------------------------------------------|
B|-------------------------------------1----------------------|
G|-------------------------------------0----------------------|
D|-3----5-----6----6----5---3------1---1-----1-----3----5--2--|
A|-------------------------------------3---3------------------|
E|------------------------------------------------------------|
_________________________________________________________________________________________
Solo (4:42)
   
e|------------------------------------------------------------------------|
B|---4--4---4-----4--6~4---9-8--66-44-----4---6-------4------4~~~~4/6-----|
G|-5---5---5-----3-5------------------3-5--------33-5----3-5--------------|
D|------------------------------------------------------------------------|
A|------------------------------------------------------------------------|
E|------------------------------------------------------------------------|
                                   /\/\/\       /\/\/\          /\/\/\
e|---------------------------------------------------------------------------|
B|---------------------16-16-------16/18--------16/18-18--------16/18----16--|
G|-3-5-5-8-8-10-10-13--------15-17--------15-17----------15-17--------17-----|
D|---------------------------------------------------------------------------|
A|---------------------------------------------------------------------------|
E|---------------------------------------------------------------------------|
   /\/\/\/\/\/\/\/\/\/\/\/\/\/\/\/\/\/\/\/\/\/\/\/\/\
e|--------------------------------------------------------|
B|-21--20------------18-------20-16-----------18-15-------|
G|--------------------------------------------------------|
D|--------------------------------------------------------|
A|--------------------------------------------------------|
E|--------------------------------------------------------|

_________________________________________________________________________________________
(ending for the live version)

(down an octave)
   Until next time Motherf*ckers
e|------------------------------|
B|------------------------------|
G|------------------------------|
D|------------------------------|
A|------------------------------|
E|-8-----6----1----1-3---4--1---|
_________________________________________________________________________________________

I'm not sure if the pre-chorus is perfect but the other parts seem right
(Email me any corrections)
_________________________________________________________________________________________
Key:
| /\/\/\ and ~ vibrato
| /  slide up
| \  slide down
| h  hammer-on
| p  pull-off
| +  harmonic
| x  Mute note
comments
We did not receive enough feedback on this tab! Please rate:
print report bad tab
1 2 3 4 5
I want to post or [tab]
guest
You may want to rate the tab now too:
select rating
Please do not post tabs as comments. Select "correction" instead!